Bass Tabs for Foo Fighters - Best Of You

Foo Fighters - Best of You

   Are you gone and onto someone new?
G|-----------------------------------
D|-----------------------------------
A|--4--------------2--------------0--
E|-----------------------------------

Verse
G|-----------------------------------------------------------------------------------------
D|----------------------------------------------------------------------------------------- 2x
A|-----------7--7--7--9--9-----------7--7--7--9--9--------7--7--6--6-----------7--7--6--6--
E|--9--9--9-----------------9--9--9-----------------5--5--------------5--5--5--------------

G|--------------------------------------------------------------------------------------------------
D|--------------------------------------------------------------------------------------------------
A|-----------7--7--6--7--9--9-----------7--7--7--9--9-----------7--7--7--6--6-----------7--7--6--6--
E|--7--7--7--------------------7--7--7-----------------5--5--5-----------------5--5--5--------------

Chorus
G|-----------------------------------------------------------------
D|----------------------------------------------------------------- 4x
A|--4--4--4--4--4--4--2--2--2--2--2--2--0--0--0--0--0--------------
E|-----------------------------------------------------2--2--2--2--

Guitar Solo
G|--------------------------------------------------------------------
D|--------------------------------------------------------------------
A|--------------------------------------------------------------------
E|--9--9--9--9--9--9--9--9--9--9--9--9--9--9--9--5--5--5--5--5--5--5--

G|-----------------------------------------------------------------------
D|-----------------------------------------------------------------------
A|-----------------------------------------------------------------------
E|--9--9--9--9--9--9--9--9--9--9--9--9--5--5--5--5--5--5--2--2--2--0--0--

G|--------------------------------------------------------------------------------
D|--------------------------------------------------------------------------------
A|--------------------------------------------------------------------------------
E|--7--7--7--7--7--7--7--7--7--7--5--5--5--5--5--7--7--7--7--7--7--5--5--5--5--5--

2nd & 3rd Chorus
G|--------------------------------------------
D|-------------------------------------------- 2x
A|--4--4--4--2--2--2--2--0--0--0--0-----------
E|-----------------------------------2--2--2--

G|-----------------------------------------------------------------------------------------
D|----------------------------------------------------------------------------------------- 2x
A|--4--4--4--4--4--4--4--4--6--6--6--6--6--6--6--6--7--7--7--7--7--7--7--7--9--9--9--9--9--
E|-----------------------------------------------------------------------------------------

Were you born to resist
G|-----------------------------------------------------------------------------------------------------
D|-----------------------------------------------------------------------------------------------------
A|--2--2--2--2--2--2--2--2--2--0--0--0--0--0--0--0--0--0--2--2--2--2--2--2--2--2--2--2--0--0--0--0--0--
E|-----------------------------------------------------------------------------------------------------

Ending
G|--------------
D|-------------- 4x
A|--------------
E|---9\0---9\0--
tabs and chords, guitar tabs, music transcription, music technology, deep learning, music information retrieval, transcribe into tabs & chords, chordify, music renditions, songsterr, reverbnation, tabulature, bollywood chords, ultimate guitar, yousician, guitar lessons, acoustic guitar, electric guitar, guitar tuner, 911 tabs