Guitar Tabs for Flo Rida - Whistle

Flo Rida - Whistle

Intro

    Am         F            C           G
E|--------------------------------------------------
B|--------1-----------1-----------1-----------0-----
G|-----------2-----------2-----------0-----------0--     2x
D|-----2-----------3-----------2-----------0--------  
A|--0-----------------------3-----------------------
E|--------------1-----------------------3-----------

Can you blow my whistle baby, whistle baby let me know
E|--------------------------------------------------------------
B|--------------------1-----------1-----------1-----------0-----
G|-----------------------2-----------2-----------0-----------0--   
D|-----------------2-----------3-----------2-----------0--------  
A|--------------0-----------------------3-----------------------
E|--------------------------1-----------------------3-----------

Girl I'm gonna show you how to do it and we  start real slow   
E|--------------------------------------------------------------------
B|--------------------1--------------1--------------1-----------0-----
G|-----------------------2--------------2--------------0-----------0--   
D|-----------------2--------------3--------------2-----------0--------  
A|--------------0-----------------------------3-----------------------
E|-----------------------------1--------------------------3-----------

You just put your lips together and you come real close
E|--------------------------------------------------------------
B|--------------1--------------1--------------1-----------0-----
G|-----------------2--------------2--------------0-----------0--   
D|-----------2--------------3--------------2-----------0--------  
A|--------0-----------------------------3-----------------------
E|-----------------------1--------------------------3-----------

Can you blow my whistle baby, whistle baby               here we go
E|--------------------------------------------------------------3--
B|--------------------1--------------1--------------1-----------3--
G|-----------------------2--------------2--------------0--------0--   
D|-----------------2--------------3--------------2--------------0--  
A|--------------0-----------------------------3-----------------2--
E|-----------------------------1--------------------------------3--

Strum Pattern -> DD-UxDUDUDU-DU-UxDUDUDU

(Am) (F) (C) (G) 2x

1st Verse

      (F)                    (C)
I'm betting you like bebop

           (G)                   (Am)
And i'm betting you love creep mode

          (F)                    (C)                       (G)
And i'm betting you like girls that give love to girls

   (G)                      (Am)
And stroke your little ego

       (F)                   (C)
I bet i'm guilty your honor

          (G)                    (Am)
But that's how we live in my genre

       (F)                     (C)
When in hell I pay rottweiler

                 (G)
There's only one flo, and one rida

 (Am)
I'm a damn shame

    (F)                           (C)
Order more champagne, pull it down hellstream

   (G)
Tryna put it on ya

   (Am)            (F)
Bet your lips spin back around corner

  (C)                          (G)
Slow it down baby take a little longer

Chorus

Can you blow my whistle baby, whistle baby let me know
E|--------------------------------------------------------------
B|--------------------1-----------1-----------1-----------0-----
G|-----------------------2-----------2-----------0-----------0--   
D|-----------------2-----------3-----------2-----------0--------  
A|--------------0-----------------------3-----------------------
E|--------------------------1-----------------------3-----------

Girl I'm gonna show you how to do it and we  start real slow   
E|--------------------------------------------------------------------
B|--------------------1--------------1--------------1-----------0-----
G|-----------------------2--------------2--------------0-----------0--   
D|-----------------2--------------3--------------2-----------0--------  
A|--------------0-----------------------------3-----------------------
E|-----------------------------1--------------------------3-----------

You just put your lips together and you come real close
E|--------------------------------------------------------------
B|--------------1--------------1--------------1-----------0-----
G|-----------------2--------------2--------------0-----------0--   
D|-----------2--------------3--------------2-----------0--------  
A|--------0-----------------------------3-----------------------
E|-----------------------1--------------------------3-----------

Can you blow my whistle baby, whistle baby               here we go
E|--------------------------------------------------------------3--
B|--------------------1--------------1--------------1-----------3--
G|-----------------------2--------------2--------------0--------0--   
D|-----------------2--------------3--------------2--------------0--  
A|--------------0-----------------------------3-----------------2--
E|-----------------------------1--------------------------------3--

(Am) (F) (C) (G) 4x

2nd Verse

          (Am)                  (F)
It's like everywhere I go my whistle ready to blow

     (C)                         (G)
Shawty don't leave a note she can get any by the low

         (Am)                  (F)
Told me she's not a pro It's okay, it's under control

     (C)                         (G)
Show me soprano, cause girl you can handle

          (Am)                  (F)
Baby we start snagging, you come in part clothes

      (C)                         (G)
Girl i'm losing wing, my bucatti the same road

          (Am)                  (F)
Show me your perfect pitch, you got it my banjo

       (C)                         (G)
Talented with your lips, like you blew out candles

          (Am)                  (F)               (C) 
So amusing, now you can make a whistle with the music

 (G)                              (Am)           
Hope you ain't got no issue, you can do it

(F)                                (C)           (G)    
Give me the perfect picture, never lose it

Chorus

Can you blow my whistle baby, whistle baby let me know
E|--------------------------------------------------------------
B|--------------------1-----------1-----------1-----------0-----
G|-----------------------2-----------2-----------0-----------0--   
D|-----------------2-----------3-----------2-----------0--------  
A|--------------0-----------------------3-----------------------
E|--------------------------1-----------------------3-----------

Girl I'm gonna show you how to do it and we  start real slow   
E|--------------------------------------------------------------------
B|--------------------1--------------1--------------1-----------0-----
G|-----------------------2--------------2--------------0-----------0--   
D|-----------------2--------------3--------------2-----------0--------  
A|--------------0-----------------------------3-----------------------
E|-----------------------------1--------------------------3-----------

You just put your lips together and you come real close
E|--------------------------------------------------------------
B|--------------1--------------1--------------1-----------0-----
G|-----------------2--------------2--------------0-----------0--   
D|-----------2--------------3--------------2-----------0--------  
A|--------0-----------------------------3-----------------------
E|-----------------------1--------------------------3-----------

Can you blow my whistle baby, whistle baby               here we go
E|--------------------------------------------------------------3--
B|--------------------1--------------1--------------1-----------3--
G|-----------------------2--------------2--------------0--------0--   
D|-----------------2--------------3--------------2--------------0--  
A|--------------0-----------------------------3-----------------2--
E|-----------------------------1--------------------------------3--

(Am) (F) (C) (G) 4x

Bridge

  (Am)              (F)
Go girl you can work it

                (C)                   (G)
Let me see your whistle while you work it

            (Am)             (F)
I'mma lay it back, don't stop it

                          (C)              (G)
Cause i love it how you drop it, drop it, drop it, on me

   (Am)              (F)
Now, shawty let that whistle blow

    (C)                   (G)
Yeah, baby let that whistle blow

Last Chorus

                 Am             F          C      G
Can you blow my whistle baby, whistle baby let me know

                 Am             F           C          G
Girl I'm gonna show you how to do it and we start real slow   

          Am             F              C          G
You just put your lips together and you come real close

                Am             F               C                  G
Can you blow my whistle baby, whistle baby               here we go

(Am) (F) (C) (G) 4x

----------------------------------------------------------------------------------------------------
Chords

    Am F  C  G
E|--0--1--0--3--
B|--1--1--1--3--
G|--2--2--0--0--
D|--2--3--2--0--
A|--0--3--3--2--
E|-----1-----3--
tabs and chords, guitar tabs, music transcription, music technology, deep learning, music information retrieval, transcribe into tabs & chords, chordify, music renditions, songsterr, reverbnation, tabulature, bollywood chords, ultimate guitar, yousician, guitar lessons, acoustic guitar, electric guitar, guitar tuner, 911 tabs