Feelin' - Bass Tabs

(/) Slide Up  (\) Slide Down  (h) Hammer On  (p) Pull Off  (b) Bend (r) Release (v) Vibrato (x) Muted

Tabs for Song : 
BPM : 184

First and second verse 
G|--------------------------------------------------------------6-----------6-----7-----7-----7--7--7--6-----------------------------------------------------------------------------------
D|-----5--7-----7-----7--------5--7-----7-----7--------5--4-----------4--------7-----------------------------7-----7-----7--------5--7-----7-----7--------5--------4-----5-----6-----7-----
A|--7-----------------------7-----------------------7-----------------------------------------------------7--------------------7-----------------------7-----7-----------------------------
E|--------------------------------------------------------------------------------------------------------------------------------------------------------------------------------------

Solo
G|--------------------------------------------------6-----7--7--7--7--7--7--7----------------------------------------------------------------------------------------------------------
D|-----5--7-----7-----7--------5--7-----7-----7--------7-----------------------2--4--4--4--4--4--4--4-----7-----7-----7--------5--7-----7-----7--------5--------4-----5-----6-----7--
A|--7-----------------------7--------------------------------------------------------------------------7--------------------7-----------------------7-----7--------------------------
E|-----------------------------------------------------------------------------------------------------------------------------------------------------------------------------------------

last verse
G|--------------------------------------------------------------6-----------6-----7-----7--7--7--6--5--4--------------------------------------------------------------------------------
D|-----5--7-----7-----7--------5--7-----7-----7--------5--4-----------4--------7--------------------------7-----7-----7--------5--7-----7-----7--------5--------4-----5-----6-----7--
A|--7-----------------------7-----------------------7-----------------------------------------------------------------------7-----------------------7-----7---------------------------
E|--------------------------------------------------------------------------------------------------------------------------------------------------------------------------------------

Outro
G|-----------------------------
D|--------4--4--5--5--6--6--7--
A|--7--7-----------------------
E|-----------------------------
tabs and chords, guitar tabs, music transcription, music technology, deep learning, music information retrieval, transcribe into tabs & chords, chordify, music renditions, songsterr, reverbnation, tabulature, bollywood chords, ultimate guitar, yousician, guitar lessons, acoustic guitar, electric guitar, guitar tuner, 911 tabs