Guitar Tabs for Fatai Rolling Dollar Is Alive, Performs Live In Itori, Lagos, Nigeria

(/) Slide Up  (\) Slide Down  (h) Hammer On  (p) Pull Off  (b) Bend (r) Release (v) Vibrato (x) Muted

Tabs & Chords
BPM : 89.0
Check Track 2 for Chord Positions 

    A                       B     E              C#m      D                 E        A        
E|-----------------7--7--4--------------------7--6-----4--6--4--5-----4--5--4--------0-----5--
B|--------------------------7-----------------------------------------------------7-----------
G|--------------------------------------------------------------------------------------------
D|-----------6--7-----------------------------------------------------------------------------
A|--0--0--------------------------------------------------------------------------------------
E|--------3--------------------7--0--0-----2--------------------------------------------------

                                        E                       D        A                    
E|--0--0--0--0--------------------------------------16-16-------------------------------------
B|--------------------------------------------------------------------------------------------
G|--------------------6--6--6--6--7--6-----------------------------7-----6--7-----6--------7--
D|-----------------0-----------------------------------------------------------------7--------
A|--------------------------------------------------------------------------------------------
E|--------------------------------------0--0--0--0--------0--0--0-----------------------------

                                              B     Em       A     Bm    A        D     
E|--0-----------------0-----------------------7--------------0-----5-----0--------------
B|--------------------------------------------------------------------------------------
G|--------6--7--6--6-----7--7--6--7--6--7--6--------------------------------6--7--7--6--
D|-----0-----------------------------------------------7--------------------------------
A|--------------------------------------------------------------------------------------
E|--------------------------------------------------0-----------------------------------

Guitar Tabs for Fatai Rolling Dollar Is Alive, Performs Live In Itori, Lagos, Nigeria






    A                       B     E              C#m      D                 E        A        
E|--0-----------------------2-----0--------------4--------2-----------------0--------0--------
B|--2-----------------------4-----0--------------5--------3-----------------0--------2--------
G|--2-----------------------4-----1--------------6--------2-----------------1--------2--------
D|--2-----------------------4-----2--------------6--------0-----------------2--------2--------
A|--0-----------------------2-----2--------------4--------------------------2--------0--------
E|--------------------------------0-----------------------------------------0-----------------

                                        E                       D        A                    
E|--------------------------------------0-----------------------2--------0--------------------
B|--------------------------------------0-----------------------3--------2--------------------
G|--------------------------------------1-----------------------2--------2--------------------
D|--------------------------------------2-----------------------0--------2--------------------
A|--------------------------------------2--------------------------------0--------------------
E|--------------------------------------0-----------------------------------------------------

                                              B     Em       A     Bm    A        D     
E|--------------------------------------------2-----0--------0-----2-----0--------2-----
B|--------------------------------------------4-----0--------2-----3-----2--------3-----
G|--------------------------------------------4-----0--------2-----4-----2--------2-----
D|--------------------------------------------4-----2--------2-----4-----2--------0-----
A|--------------------------------------------2-----2--------0-----2-----0--------------
E|--------------------------------------------------0-----------------------------------

tabs and chords, guitar tabs, music transcription, music technology, deep learning, music information retrieval, transcribe into tabs & chords, chordify, music renditions, songsterr, reverbnation, tabulature, bollywood chords, ultimate guitar, yousician, guitar lessons, acoustic guitar, electric guitar, guitar tuner, 911 tabs