Bass Tabs for To Live Is To Die

(/) Slide Up  (\) Slide Down  (h) Hammer On  (p) Pull Off  (b) Bend (r) Release (v) Vibrato (x) Muted

Tabs for Song : 

Song lyrics here
G|-----------------------
D|--14-14-12-10-10h12-9--
A|-----------------------
E|-----------------------

G|--------------------------
D|--------------9--10-10-9--
A|--12----10-12-------------
E|--------------------------

G|--------------------------------
D|-----10-10h9--------------------
A|--10----------10-10h12----10h12-
E|--------------------------------

G|--------------------------------------
D|---9h10-10-10h12-12-12h14-14-14h15h14-
A|--------------------------------------
E|--------------------------------------

G|-----------------------------
D|--14h15-15h14-12-10-10-9-----
A|--------------------------10-
E|-----------------------------

G|--------------------------------------------------------------------------------
D|---9h10h9--------------------------------9--10-9-----9--10-9--9--10-12-12-14-12-
A|-----------10----10-12-10----12----12-12----------------------------------------
E|--------------------------------------------------------------------------------

G|--------------------------------------------------16-17-16----16-17-16----16-17-16----17-16-------19-17-16----------h
D|--14-14-15-14-12-9--10-9--------9-----19----19-19-------------------------------------------17-17----------19-19b19-
A|--------------------------12-10-------------------------------------------------------------------------------------
E|--------------------------------------------------------------------------------------------------------------------

Song lyrics here
G|--
D|--
A|--
E|--

Paste any tab in acousterr's tab maker and we'll play it !!!
Now supports capo and sound effects for vibrato/pull-off/hammer/bends/mutes etc !!! Checkout help section
tabs and chords, guitar tabs, music transcription, music technology, deep learning, music information retrieval, transcribe into tabs & chords, chordify, music renditions, songsterr, reverbnation, tabulature, bollywood chords, ultimate guitar, yousician, guitar lessons, acoustic guitar, electric guitar, guitar tuner, 911 tabs