Guitar Tabs for Faded-"alan Walker"-tabs

(/) Slide Up  (\) Slide Down  (h) Hammer On  (p) Pull Off  (b) Bend (r) Release (v) Vibrato (x) Muted

Tabs for Song : 
BPM : 200

intro
E|--2-----2-----2-----6-----11----11----11----9-----6-----6-----6-----6-----1-----1-----1--------
B|--------------------------------------------------------------------------------------------4--
G|-----------------------------------------------------------------------------------------------
D|-----------------------------------------------------------------------------------------------
A|-----------------------------------------------------------------------------------------------
E|-----------------------------------------------------------------------------------------------
you were the shadwo to my light did tou feel us

E|--2--2-----2-----2--4--6-----2--2-----6-----
B|--------4-----4--------------------2--------
G|--------------------------------------------
D|--------------------------------------------
A|--------------------------------------------
E|--------------------------------------------
another star you fade away
E|--2--2--2--1-----1--1-----2-----
B|-----------------------4--------
G|--------------------------------
D|--------------------------------
A|--------------------------------
E|--------------------------------
afrid our aim is out of sight wanna see us alight
E|--2--2-----2-----2--4--6-----2--2--9--6-----2--2--4-----
B|--------4-----4-----------------------------------------
G|--------------------------------------------------------
D|--------------------------------------------------------
A|--------------------------------------------------------
E|--------------------------------------------------------
where are you now.........where are you now........where are you now.....

E|--6--6--6--6-----2-----2-----6-----11----11----11----6--6--6--6-----6-----6-----6-----1-----1-----1-----6--6--6--6-----
B|-----------------------------------------------------------------------------------------------------------------------
G|-----------------------------------------------------------------------------------------------------------------------
D|-----------------------------------------------------------------------------------------------------------------------
A|-----------------------------------------------------------------------------------------------------------------------
E|-----------------------------------------------------------------------------------------------------------------------
was it all in my fantasy.....where are you now......were you only imaginary
E|--2--4--4-----4--6--4--2--2--------6--6--6--6--------2--2--2-----2--4--1-----1-----1--2--------
B|-----------------------------------------------------------------------------------------------
G|-----------------------------------------------------------------------------------------------
D|-----------------------------------------------------------------------------------------------
A|-----------------------------------------------------------------------------------------------
E|-----------------------------------------------------------------------------------------------


where are you now....atlantis under the see.....under the see
E|--6--6--6--6--------2-----------2--9--9--6-----2--9--9--6--------
B|-----------------------4--2--------------------------------4-----
G|-----------------------------------------------------------------
D|-----------------------------------------------------------------
A|-----------------------------------------------------------------
E|-----------------------------------------------------------------
where are you now....another dream..the monsters running wild inside of me
E|--6--6--6--6--------2--------7-----9--6--9--6--9--6--9--6--4--7--
B|-----------------------5--5--------------------------------------
G|-----------------------------------------------------------------
D|-----------------------------------------------------------------
A|-----------------------------------------------------------------
E|-----------------------------------------------------------------
I am faded...
E|-----8--7--
B|--5--------
G|-----------
D|-----------
A|-----------
E|-----------

Use manual mode to free up cursor. Paste any tab in acousterr tab maker and we'll play it !!!
tabs and chords, guitar tabs, music transcription, music technology, deep learning, music information retrieval, transcribe into tabs & chords, chordify, music renditions, songsterr, reverbnation, tabulature, bollywood chords, ultimate guitar, yousician, guitar lessons, acoustic guitar, electric guitar, guitar tuner, 911 tabs