Bass Tabs for Fade Away (like A Ghost) Bass

(/) Slide Up  (\) Slide Down  (h) Hammer On  (p) Pull Off  (b) Bend (r) Release (v) Vibrato (x) Muted
 
Verses:
This feeling's overwhelming me,
Everything I've ever done laid out for my eyes to see,
And as I wander this world alone,
I think of my life and this cold heart of stone,
G|-----------------------------------------------------------------------------------------------------------
D|-----------------------------------------------------------------------------------------------------------
A|-----------------------------------------------------------------------------------------------------------
E|---1/4------1/3------1/4------1/3------1/4------1/3------1/4------1/3------1/4------1/3------1/4------1/3--

Verse 2:
Sometimes it feels like I live my life,
Just like a ghost ship always seen but never touched,
Fading away from anyone who gets close to me,
Wandering about on this frozen lonely sea,
G|--------------------------------------------------------------------------------------------------------
D|--------------------------------------------------------------------------------------------------------
A|--------------------------------------------------------------------------------------------------------
E|---1/4------1/3------1/4------1/3------1/4------1/3------1/4------1/3-----3--3--3--3--3--3--3--3--3--3--


Chorus:
And I just fight the waves,
G|--------------------------------------------------------------------------------------------------
D|--------------------------------------------------------------------------------------------------
A|--4--4--4--4--4--4--4--4--4--4--4--4--4--4--4--4--------------------------------------------------
E|--------------------------------------------------4--4--4--4--4--4--4--4--4--4--4--4--4--4--4--4--
I feel them crash on me,
G|--------------------------------------------------------------------------------------------------
D|--------------------------------------------------------------------------------------------------
A|--4--4--4--4--4--4--4--4--4--4--4--4--4--4--4--4--------------------------------------------------
E|--------------------------------------------------1--1--1--1--1--1--1--1--1--1--1--1--1--1--1--1--
And the wind never blows my way,
G|--------------------------------------------------------------------------------------------------
D|--------------------------------------------------------------------------------------------------
A|--4--4--4--4--4--4--4--4--4--4--4--4--4--4--4--4--------------------------6--6--6--6--6--6--6--6--
E|--------------------------------------------------4--4--4--4--4--4--4--4--------------------------
I don't think that I could brave another storm,
G|--------------------------------------------------------------------------------------------------------
D|--------------------------------------------------------------------------------------------------------
A|--4--4--4--4--4--4--4--4--4--4--4--4--4--4--4--4--------------------------------------------------------
E|--------------------------------------------------1-----1--1-----1--1-----1--1-----1--1-----1-----1--1--

Bridge: 
G|-----------------------------------------------
D|-----------------------------------------------
A|-----------------------------------------------
E|--1-----1-----1-----1-----1-----1-----1-----1--
tabs and chords, guitar tabs, music transcription, music technology, deep learning, music information retrieval, transcribe into tabs & chords, chordify, music renditions, songsterr, reverbnation, tabulature, bollywood chords, ultimate guitar, yousician, guitar lessons, acoustic guitar, electric guitar, guitar tuner, 911 tabs