Guitar Tabs for Fade Away (like A Ghost)

(/) Slide Up  (\) Slide Down  (h) Hammer On  (p) Pull Off  (b) Bend (r) Release (v) Vibrato (x) Muted

Tabs for Song : 
BPM : 120

Verse 1: Clean Guitar
This feeling's overwhelming me,
Everything I've ever done laid out for my eyes to see,
And as I wander this world alone,
I think of my life and this cold heart of stone,
E|--8-----11----8-----11----8-----11----8-----11----8-----11----8-----11----8-----11----8-----11----
B|-----9-----9-----8-----8-----9-----9-----8-----8-----9-----9-----8-----8-----9-----9-----8-----8--
G|--------------------------------------------------------------------------------------------------
D|--------------------------------------------------------------------------------------------------
A|--------------------------------------------------------------------------------------------------
E|--------------------------------------------------------------------------------------------------

Verse 2: Clean Guitar
Sometimes it feels like I live my life,
Just like a ghost ship always seen but never touched,
Fading away from anyone who gets close to me,
Wandering about on this frozen lonely sea,
E|--8-----11----8-----11----8-----11----8-----11----8-----11----8-----11----8-----11----8-----11----
B|-----9-----9-----8-----8-----9-----9-----8-----8-----9-----9-----8-----8-----9-----9-----8-----8--
G|--------------------------------------------------------------------------------------------------
D|--------------------------------------------------------------------------------------------------
A|--------------------------------------------------------------------------------------------------
E|--------------------------------------------------------------------------------------------------

Chorus: Distorted Guitar
And I just fight the waves,
E|--------------------------------------------------------------------------------------------------
B|--------------------------------------------------------------------------------------------------
G|--6--6--6--6--6--6--6--6--6--6--6--6--6--6--6--6--------------------------------------------------
D|--6--6--6--6--6--6--6--6--6--6--6--6--6--6--6--6--6--6--6--6--6--6--6--6--6--6--6--6--6--6--6--6--
A|--4--4--4--4--4--4--4--4--4--4--4--4--4--4--4--4--6--6--6--6--6--6--6--6--6--6--6--6--6--6--6--6--
E|--------------------------------------------------4--4--4--4--4--4--4--4--4--4--4--4--4--4--4--4--
I feel them crash on me,
E|--------------------------------------------------------------------------------------------------
B|--------------------------------------------------------------------------------------------------
G|--6--6--6--6--6--6--6--6--6--6--6--6--6--6--6--6--------------------------------------------------
D|--6--6--6--6--6--6--6--6--6--6--6--6--6--6--6--6--3--3--3--3--3--3--3--3--3--3--3--3--3--3--3--3--
A|--4--4--4--4--4--4--4--4--4--4--4--4--4--4--4--4--3--3--3--3--3--3--3--3--3--3--3--3--3--3--3--3--
E|--------------------------------------------------1--1--1--1--1--1--1--1--1--1--1--1--1--1--1--1--
And the wind never blows my way,
E|--------------------------------------------------------------------------------------------------
B|--------------------------------------------------------------------------------------------------
G|--6--6--6--6--6--6--6--6--6--6--6--6--6--6--6--6--------------------------8--8--8--8--8--8--8--8--
D|--6--6--6--6--6--6--6--6--6--6--6--6--6--6--6--6--6--6--6--6--6--6--6--6--8--8--8--8--8--8--8--8--
A|--4--4--4--4--4--4--4--4--4--4--4--4--4--4--4--4--6--6--6--6--6--6--6--6--6--6--6--6--6--6--6--6--
E|--------------------------------------------------4--4--4--4--4--4--4--4--------------------------
I don't think that I could brave another storm,
E|--------------------------------------------------
B|--------------------------------------------------
G|--6--6--6--6--6--6--6--6--6--6--6--6--6--6--6--6--
D|--6--6--6--6--6--6--6--6--6--6--6--6--6--6--6--6--
A|--4--4--4--4--4--4--4--4--4--4--4--4--4--4--4--4--
E|--------------------------------------------------

E|--------------------------------------------
B|--------------------------------------------
G|--------------------------------------------
D|--3-----2-----1-----3-----3-----3-----3--3--
A|--3-----3-----3-----5-----4-----3-----3--3--
E|--1-----1-----1-----1-----1-----1-----1--1--

Solo: Clean Guitar
E|--13b15-11-11-------------------------------------------------------------------------------------------
B|--------------13-13-11-13----11-11-11-11----------------------------------------------------------------
G|-----------------------------------------13-13-13p12-12-12p10-10-10-------------------------------------
D|--------------------------------------------------------------------13-13-13p11-11-11p10-10-10-10h11p10-
A|--------------------------------------------------------------------------------------------------------
E|--------------------------------------------------------------------------------------------------------

E|--------------------------------------------------------11-13-11-13v15-
B|-----------------------------------------------11-12-13----------------
G|--------------------------------------10-11-12-------------------------
D|--------------------------10-10-11-13----------------------------------
A|--13-11----------11h12h13----------------------------------------------
E|--------11h12h13-------------------------------------------------------

Bridge: Clean Guitar
E|-----------------------------------------------------------------------------
B|-----------------------------------------------------------------------------
G|-----------------------------------------------------5--5--5--5--5--5--5--5--
D|--3-----3-----3-----3-----3-----3-----3-----3--3-----5--5--5--5--5--5--5--5--
A|--3-----4-----3-----4-----3-----4-----3-----3--3-----3--3--3--3--3--3--3--3--
E|--1-----1-----1-----1-----1-----1-----1-----1--1-----------------------------

Outro: I'm like a ghost, (Like a ghost)
I'm a ghost,
I'm a ghost,
Ghost...
E|--------------------------------1--
B|--------------------------------1--
G|--------------------------------1--
D|--3-----3-----3-----3-----3-----3--
A|--4-----5-----4-----5-----4-----3--
E|--1-----1-----1-----1-----1-----1--

tabs and chords, guitar tabs, music transcription, music technology, deep learning, music information retrieval, transcribe into tabs & chords, chordify, music renditions, songsterr, reverbnation, tabulature, bollywood chords, ultimate guitar, yousician, guitar lessons, acoustic guitar, electric guitar, guitar tuner, 911 tabs