Guitar Tabs for F. Sor. - Andante

E|-----0--------------0--3--1-----------------------------------------------------
B|-----------1-----1-----------3--0--------------1--1--0--1--3--------------------
G|--0-----------0-----------------------0--0-----------------------0--0--0--0--0--
D|--------------2--------0--------3--------2--------2--0--------------------------
A|-----3--------------------------------------------------3--2--------------------
E|--------------------------------------------------------------------------------

E|--0--------------0--3--2--1-----------------0-----------------0-----
B|--------1-----1--------------3--0-----1-----------3--0--1--------1--
G|-----------0-----------------------0-----0-----2-----0--------0-----
D|-----------2--------0--------3--------2--------3-----------2-----2--
A|--3-----------------------------------------3-----------3--------3--
E|--------------------------------------------------------------------

E|-----2-----------2--0-----------0--------------------------------------------------------0--------------------
B|-----------------------------------3-----------3--1-----------1-----------3--1--------------3-----------------
G|--0--------0--------------0--------------0--------------0--------0-----0-----------0-----------0--0--0--0--0--
D|-----0-----------------------------3--------------2--------------0--------3--2--------------------------------
A|--------------------3--------------------------------------------------------------------3--2-----------------
E|--------------------------------------------------------------------------------------------------------------

E|--0--------------0--3--2--1--------------0--------------------------
B|--------1-----1--------------3--0-----1-----1-----3--0--1-----------
G|-----------0-----------------------0-----------2-----0--------0-----
D|-----------2--------0--------3--------2-----2--3-----------2--------
A|--3--------------------------------------3--------------3--------3--
E|--------------------------------------------------------------------
tabs and chords, guitar tabs, music transcription, music technology, deep learning, music information retrieval, transcribe into tabs & chords, chordify, music renditions, songsterr, reverbnation, tabulature, bollywood chords, ultimate guitar, yousician, guitar lessons, acoustic guitar, electric guitar, guitar tuner, 911 tabs