Guitar Tabs for Andante - Carulli

(/) Slide Up  (\) Slide Down  (h) Hammer On  (p) Pull Off  (b) Bend (r) Release (v) Vibrato (x) Muted

Tabs for Song : 
BPM : 200

Song lyrics here 
E|--------------0-----0-----1-----1-----0-----0-----------------------------------------------------------------
B|-----0--1--3--1-----1-----3-----3-----1-----1-----3--1--0-----0-----0-----3-----3-----1-----1--------0--1--3--
G|--2--------------------------------------------------------2--1-----1-----4-----4-----2-----2-----2-----------
D|--------------------------------------------------------------------------------------------------------------
A|-----------------0-----0-----0-----0-----0-----0-----------------------------------------0-----0--------------
E|-----------------------------------------------------------------0-----0-----0-----0--------------------------

E|--0-----0-----1-----1-----0-----0-----1--0--------3--1--0--------------------------0-----0--------------------------
B|--1-----1-----3-----3-----1-----1-----------3--1-----------3--1--0--------------4-----4-----0-----0-----3-----3-----
G|--------------------------------------------------------------------2--1--2-----------------1-----1-----4-----4-----
D|--------------------------------------------------0-----------------------------------------------------------------
A|-----0-----0-----0-----0-----0-----0--------------------------------------0-----------------------------------------
E|--------------------------------------------------------------0--------------------------------0-----0-----0-----0--

E|-----------------0-----0--1-----0--------------------------------0-----0-----------------------------------------0-----0--
B|--1-----1-----4-----4-----3-----1-----3-----1-----1-----0-----4-----4-----0-----0-----3-----3-----1-----1-----4-----4-----
G|--2-----2-----------------------------4-----2-----2-----1-----------------1-----1-----4-----4-----2-----2-----------------
D|--------------------------------------------------------------------------------------------------------------------------
A|-----0-----0-----------------0-----0-----0-----0-----------------------------------------------------0-----0--------------
E|-----------------------------------------------------0-----0-----------------0-----0-----0-----0--------------------------

E|-----1-----0--------------0-----------------0-----0-----1-----1-----0-----0-----------------------------------------
B|-----3-----1-----3-----1--0--------0--1--3--1-----1-----3-----3-----1-----1-----3--1--0-----0-----0-----3-----3-----
G|-----------------4-----2--1-----2--------------------------------------------------------2--1-----1-----4-----4-----
D|--0-----0-----0-----1-----2-----------------------------------------------------------------------------------------
A|-----------------------------------------------0-----0-----0-----0-----0-----0--------------------------------------
E|-----------------------------------------------------------------------------------------------0-----0-----0-----0--

E|--------------------------0-----0-----1-----1-----0-----0-----1--0--------3--1--0-----------------------
B|--1-----1--------0--1--3--1-----1-----3-----3-----1-----1-----------3--1-----------3--1--0--------------
G|--2-----2-----2-----------------------------------------------------------------------------2--1--2-----
D|--------------------------------------------------------------------------------------------------------
A|-----0-----0-----------------0-----0-----0-----0-----0-----0--------------------------------------0-----
E|--------------------------------------------------------------------------------------0-----------------

E|--------------------------------------0-----0-----1-----1-----3-----3-----1-----0-----------------------------
B|--------0-----1-----1-----3-----3-----------------------------------------------------3-----3-----------0-----
G|--0--2-----0-----0-----0-----0-----0-----0-----0-----0-----0-----0-----0-----0-----0-----0--------0--2-----0--
D|--------------------------------------------------0-----0-----2-----2-----0-----------------------------------
A|--------------3-----3-----2-----2-----3-----3-----------------------------------3-----2-----2-----------------
E|--------------------------------------------------------------------------------------------------------------

E|--------------------------0-----0-----1-----1-----3-----1-----0-----------------------------------------------------
B|--1-----1-----3-----3-----------------------------------------------3-----1-----------------0-----0-----------------
G|-----0-----0-----0-----0-----0-----0-----0-----0-----0-----0-----0-----0-----------0-----0-----0-----0-----0-----0--
D|--------------------------------------0-----0-----2-----0-----------------------4-----4-----3-----3-----4-----4-----
A|--3-----3-----2-----2-----3-----3-----------------------------3-----2-----3-----------------------------------------
E|--------------------------------------------------------------------------------------------------------------------

E|--------------------------1-----1-----0-----0-----------------------------------------------------------------------------
B|--1-----1-----------------------------------------3-----3-----------------0-----0-----------------1-----1-----------------
G|-----0-----0-----0-----0-----0-----0-----0-----0-----0-----0-----0-----0-----0-----0-----0-----0-----0-----0-----0-----0--
D|--2-----2-----4-----4-----0-----0-----------------------------4-----4-----3-----3-----4-----4-----2-----2-----4-----4-----
A|--------------------------------------3-----3-----2-----2-----------------------------------------------------------------
E|--------------------------------------------------------------------------------------------------------------------------

E|--1-----1-----0-----0-----------------------------------------------0-----0-----1-----1-----3-----3-----1-----0-----
B|--------------------------3-----------0-----1-----1-----3-----3-----------------------------------------------------
G|-----0-----0-----0-----0--------0--2-----0-----0-----0-----0-----0-----0-----0-----0-----0-----0-----0-----0-----0--
D|--0-----0-----------------------------------------------------------------------0-----0-----2-----2-----0-----------
A|--------------3-----3-----2-----------------3-----3-----2-----2-----3-----3-----------------------------------3-----
E|--------------------------------------------------------------------------------------------------------------------

E|--------------------------------------------------0-----0-----1-----1-----3-----1-----0-----------------
B|--3-----3-----------0-----1-----1-----3-----3-----------------------------------------------3-----1-----
G|-----0--------0--2-----0-----0-----0-----0-----0-----0-----0-----0-----0-----0-----0-----0-----0--------
D|--------------------------------------------------------------0-----0-----2-----0-----------------------
A|--2-----2-----------------3-----3-----2-----2-----3-----3-----------------------------3-----2-----3-----
E|--------------------------------------------------------------------------------------------------------



Song lyrics here 
E|--
B|--
G|--
D|--
A|--
E|--

Use manual mode to free up cursor. Paste any tab in acousterr tab maker and we'll play it !!!
tabs and chords, guitar tabs, music transcription, music technology, deep learning, music information retrieval, transcribe into tabs & chords, chordify, music renditions, songsterr, reverbnation, tabulature, bollywood chords, ultimate guitar, yousician, guitar lessons, acoustic guitar, electric guitar, guitar tuner, 911 tabs