Guitar Tabs for Drunken Sailor

E|--0-----0--0--0-----0--0--0-----------------0-----------------------------------------------------
B|--1-----------------------1-----------1-----------3-----3--3--3-----3--3--3-----------0-----3-----
G|--2-----------------------2-----2-----------------0-----------------------0-----0-----------------
D|--2-----------------------2-----------------------0-----------------------0-----------------------
A|--0-----------------------0-----------------------2-----------------------2-----------------------
E|--------------------------------------------------3-----------------------3-----------------------

E|--0-----0--0--0-----0--0--0-----2-----3-----5-----3-----0-----------------------------------------
B|--1-----------------------1-----------------------1-----------3-----0-----------------------------
G|--2-----------------------2-----------------------2-----------0-----------2-----------2-----------
D|--2-----------------------2-----------------------2-----------0-----------2-----------------------
A|--0-----------------------0-----------------------0-----------2-----------0-----------------------
E|--------------------------------------------------------------3-----------------------------------

E|--0-----------0--------0--0-----------------0-----------------------------------------------------
B|--1-----------------------1-----------1-----------3-----------3--------3--3-----------0-----3-----
G|--2-----------------------2-----2-----------------0-----------------------0-----0-----------------
D|--2-----------------------2-----------------------0-----------------------0-----------------------
A|--0-----------------------0-----------------------2-----------------------2-----------------------
E|--------------------------------------------------3-----------------------3-----------------------

E|--0-----------0--------0--0-----2-----3-----5-----3-----0-----------------------------------------
B|--1-----------------------1-----------------------1-----------3-----0-----------------------------
G|--2-----------------------2-----------------------2-----------0-----------2-----------2-----------
D|--2-----------------------2-----------------------2-----------0-----------2-----------------------
A|--0-----------------------0-----------------------0-----------2-----------0-----------------------
E|--------------------------------------------------------------3-----------------------------------


tabs and chords, guitar tabs, music contests, music covers, songsterr, reverbnation, renditions, tabulature, bollywood chords, ultimate guitar, yousician, guitar lessons, torrins, fender, gibson, acoustic guitar, electric guitar, youtube covers, gootar, guitar tuner, A-Z tabs, 911 tabs