Guitar Tabs for Drunken Sailor

E|--------------------------
B|--------------------------
G|--------------------------
D|--------------------------
A|--2--2--2--2--2--------2--
E|-----------------0--3-----


E|--------------------------
B|--------------------------
G|--------------------------
D|-----------------0--4-----
A|--0--0--0--0--0--------0--
E|--------------------------


E|--------------------------------------------
B|--------------------------------------------
G|--------------------------------------------
D|--------------------0--2--0-----------------
A|--2--2--2--2--2--4-----------2--0-----------
E|-----------------------------------2--0--0--


E|--------------------------
B|--------------------------
G|--------------------------
D|--2--2--2--2--2--2--2--2--
A|--2--2--2--2--2--2--2--2--
E|--------------------------


E|--2--2--2--2--2--2--2--2--
B|--3--3--3--3--3--3--3--3--
G|--2--2--2--2--2--2--2--2--
D|--------------------------
A|--------------------------
E|--------------------------

E|--------------------------
B|--------------------------
G|--------------------------
D|--2--2--2--2--2--2--2--2--
A|--2--2--2--2--2--2--2--2--
E|--------------------------


E|--2--2--------
B|--3--3--------
G|--2--2--------
D|--------2--2--
A|--------2--2--
E|--------------

tabs and chords, guitar tabs, music transcription, music technology, deep learning, music information retrieval, transcribe into tabs & chords, chordify, music renditions, songsterr, reverbnation, tabulature, bollywood chords, ultimate guitar, yousician, guitar lessons, acoustic guitar, electric guitar, guitar tuner, 911 tabs