Guitar Tabs for Infester - Excoriation Killz The Bliss ( Under Development )

Tuning - C# F# B E G# C#

Riff 1 - play 4 times

C|----------------------------------------------------------------------------------------------------
G|--------------------------------------------------------------------------------------------------
E|--------------------------------------------------------------------------------------------------
B|--------------------------------------------------------------------------------------------------
F|--------------------------2--2--2--2--3--3--3--3--2--2--2--2--2--2--2--2--------------------------
C|--0--0--0--0--1--1--1--1--------------------------------------------------3--3--3--3--3--3--3--3--


C|--------------------------------------------------------------------------------------------------
G|--------------------------------------------------------------------------------------------------
E|--------------------------------------------------------------------------------------------------
B|--------------------------------------------------------------------------------------------------
F|--------------------------2--2--2--2--3--3--3--3--2--2--2--2--------------------------------------
C|--0--0--0--0--1--1--1--1--------------------------------------3--3--3--3--10-10-10-10-10-10-10-10-

Riff 2 - play 2 times

C|--------------------------------------------------------------------------------------------------
G|--------------------------------------------------------------------------------------------------
E|--------------------------------------------------------------------------------------------------
B|--------------------------------------------------------------------------------------------------
F|--------------------------2-----------3-----------2-----------------------2-----------------------
C|--0-----------1-----------------------------------------------------------3-----------------------

C|--------------------------------------------------------------------------------------------------
G|--------------------------------------------------------------------------------------------------
E|--------------------------------------------------------------------------------------------------
B|--------------------------------------------------------------------------------------------------
F|--------------------------2-----------3-----------2--2--2--2--------------------------------------
C|--0-----------1-----------------------------------------------3--3--3--3--10-10-10-10-10-10-10-10-

Back to Riff 1 - play 2 times

Riff 3 - play 4 times

C|--------------------------------------------------------------------------------------------------
G|--------------------------------------------------------------------------------------------------
E|--------------------------------------------------------------------------------------------------
B|--------------------------------------------------------------------------------------------------
F|--------------------------------------------------------------------------7--7--4--4--7--7--4--4--
C|--3--3--3--3--3--3--3--3--4--4--4--4--4--4--4--4--3--3--3--3--3--3--3--3--------------------------

C|--------------------------------------------------------------------------------------------------
G|--------------------------------------------------------------------------------------------------
E|--------------------------------------------------------------------------------------------------
B|--------------------------------------------------------------------------------------------------
F|--------------------------------------------------------------------------------------------------
C|--3--3--3--3--3--3--3--3--4--4--4--4--4--4--4--4--1--1--1--1--1--1--1--1--3--3--4--4--3--3--1--1--

Riff 4 - play this once

C|--------------------------------------------------
G|--------------------------------------------------
E|--------------------------------------------------
B|--------------------------------------------------
F|--------------------------------------------------
C|--3--3--4--4--3--3--1--1--3--3--1--1--0--0--0--0--

Play this once

C|--------------------------------------------------
G|--------------------------------------------------
E|--------------------------------------------------
B|--------------------------------------------------
F|--------------------------------------------------
C|--3-----4-----0-----0-----4-----3-----0-----0-----

Riff 5 - play once

C|--------4-----------------------5-----------------------4-----------------------5-----------------
G|--------------------------------------------------------------------------------------------------
E|--------------------------------------------------------------------------------------------------
B|--------------------------------------------------------------------------------------------------
F|--------------------------------------------------------------------------------------------------
C|--3-----------0-----0-----3-----------0-----0-----3-----------0-----0-----3-----------0-----0-----

Riff 4 - play 2 times

Riff 5 - play once

Riff 4 - play 2 times

Riff 5 - play once

Riff 6 - play 3 times

C|--------------------------------------------------------------------------------------------------------------------------------------------------
G|--------------------------------------------------------------------------------------------------------------------------------------------------
E|--------------------------------------------------------------------------------------------------------------------------------------------------
B|--------------------------------------------------------------------------------------------------------------------------------------------------
F|--------------------------------------------------------------------------------------------------------------------------------------------------
C|--1--1--0--0--1--1--0--0--3--3--0--0--1--1--0--0--1--1--0--0--1--1--0--0--3--3--0--0--1--1--0--0--3--3--0--0--0--0--0--0--0--0--0--0--0--0--0--0--

Play this once

C|--------------------------------------------------------------------------------------------------------------------------------------
G|--------------------------------------------------------------------------------------------------------------------------------------
E|--------------------------------------------------------------------------------------------------------------------------------------
B|--------------------------------------------------------------------------------------------------------------------------------------
F|--------------------------------------------------------------------------------------------------------------------2-----------------
C|--1--1--0--0--1--1--0--0--3--3--0--0--1--1--0--0--1--1--0--0--1--1--0--0--3--3--0--0--1--1--0--0--3-----------------0-----------------

Riff 7 - play twice

C|--------------------------------------------------------------------------------------------------------------------------------------------------------------------------------------------------------------------
G|--------------------------------------------------------------------------------------------------------------------------------------------------------------------------------------------------------------------
E|--------------------------------------------------------------------------------------------------------------------------------------------------------------------------------------------------------------------
B|--------------------------------------------------5-----------------------------------------------------------------------------------------------------------------------------------------------------------------
F|--9-----------------------------------------------3-----------------------------------------5-----------------------------------------7-----------------------------------------4-----------------------------------
C|--7-----------------------------------------------------------------------------------------3-----------------------------------------5-----------------------------------------2-----------------------------------

Riff 8 - play twice

C|--------------------------------------------------------------------------------------------------------------------------------------------------------------------------------------------------
G|--------------------------------------------------------------------------------------------------------------------------------------------------------------------------------------------------
E|--------------------------------------------------------------------------------------------------------------------------------------------------------------------------------------------------
B|--------------------------------------------------------------------------------------------------------------------------------------------------------------------------------------------------
F|--------------------------------------------------3--3--3--3--3--3--3--3--3--3--3--3--3--3--3--3--------------------------------------------------------------------------------------------------
C|--7--7--7--7--7--7--7--7--7--7--7--7--7--7--7--7--------------------------------------------------3--3--3--3--3--3--3--3--5--5--5--5--5--5--5--5--2--2--2--2--2--2--2--2--2--2--2--2--2--2--2--2--

Play Riff 7 twice faster

Play Riff 8 twice

Play Riff 7 once like the first time

Play Riff 8 twice

Then play this

C|--------------------------------------------------------------------------------------
G|--------------------------------------------------------------------------------------
E|--------------------------------------------------------------------------------------
B|--------------------------------------------------------------------------------------
F|-----------2--------------2-----------------------------2-----------2-----------------
C|--2-----3--------3--------0-----------------2-----3-----------3-----0-----------------

Riff 8 - play 3 times

C|--------------------------------------------------------------------------------------------------
G|--------------------------------------------------------------------------------------------------
E|--------------------------------------------------------------------------------------------------
B|--------------------------------------------------------------------------------------------------
F|--------------2-----------------------------------------------2-----------------------------------
C|--2-----3-----------3-----2--2--2--2--2--2--2--2--2-----3-----------3-----2--2--2-----1--1--1-----



C|--------------------------------------------------------------------------------------------------------------------------
G|--------------------------------------------------------------------------------------------------------------------------
E|--------------------------------------------------------------------------------------------------------------------------
B|--------------------------------------------------------------------------------------------------------------------------
F|--------------2-----------------------------------------------2-----------------------2--2--2-----1--1--1-----------------
C|--2-----3-----------3-----2--2--2--2--2--2--2--2--2-----3-----------3-----2--2--2-----------------------------1--1--1-----

Riff 4 - play 6 times

Then play this

C|--------------------------------------------------------------------------------------------------
G|--------------------------------------------------------------------------------------------------
E|--------------------------------------------------------------------------------------------------
B|--------------------------------------------------------------------------------------------------
F|--2-----------------------------------------------------------2--2--2-----1--1--1-----------------
C|--0-----------------------------------------------2--2--2-----------------------------1--1--1-----










tabs and chords, guitar tabs, music transcription, music technology, deep learning, music information retrieval, transcribe into tabs & chords, chordify, music renditions, songsterr, reverbnation, tabulature, bollywood chords, ultimate guitar, yousician, guitar lessons, acoustic guitar, electric guitar, guitar tuner, 911 tabs