Guitar Tabs for Excoriation Killz The Bliss

(/) Slide Up  (\) Slide Down  (h) Hammer On  (p) Pull Off  (b) Bend (r) Release (v) Vibrato (x) Muted

Tabs for Song : Excoriation Killz The Bliss

Riff 1 
B|--------------------------------------------------------------------------------------------------
F|--------------------------------------------------------------------------------------------------
D|--------------------------------------------------------------------------------------------------
A|--------------------------------------------------------------------------------------------------
E|--------------------------4--4--4--4--5--5--5--5--4--4--4--4--4--4--4--4--------------------------
B|--2--2--2--2--3--3--3--3--------------------------------------------------5--5--5--5--5--5--5--5--

B|---------------------------------------------------------------------------------------------------
F|--------------------------------------------------------------------------------------------------
D|--------------------------------------------------------------------------------------------------
A|--------------------------------------------------------------------------------------------------
E|--------------------------4--4--4--4--5--5--5--5--4--4--4--4--------------7--7--7--7--7--7--7--7--
B|--2--2--2--2--3--3--3--3--------------------------------------5--5--5--5--------------------------

Riff 2
B|--------------------------------------------------
F|--------------------------------------------------
D|--------------------------------------------------
A|--------------------------------------------------
E|--------4--5--4-----4-----------4--5--4-----7-----
B|--2--3--------------5-----2--3-----------5--------

Riff 3
B|--------------------------------------------------------------------------------------------------------------
F|--------------------------------------------------------------------------------------------------------------
D|--------------------------------------------------------------------------------------------------------------
A|--------------------------------------------------------------------------------------------------------------
E|--------------------------------------3-----3--2--------------------------------------------------------------
B|--2--2--2--2--3--3--3--3--2--2--2--2-----5--------2--2--2--2--3--3--3--3--0--0--0--0--5--5--6--6--3--3--3--3--

Riff 4
B|--------------------------------------------------
F|--------------------------------------------------
D|--------------------------------------------------
A|--------------------------------------------------
E|--------------------------------------------------
B|--5--6--5--3--2--3--0--3--5--6--5--3--2--3--0--3--

Riff 5 (Pinch Harmonic on 2nd string 6 fret)
B|--------------------------
F|--------------------------
D|--------------------------
A|--------------------------
E|-----6-----------3--------
B|--5-----5--3--2-----2--3--

B|--------------------------------------------------------------------------------------------------------------
F|--------------------------------------------------------------------------------------------------------------
D|--------------------------------------------------------------------------------------------------------------
A|--------------------------------------------------------------------------------------------------------------
E|--------------------------------------------------------------------------------------------------------------
B|--5--0--0--5--0--0--6--0--0--6--0--0--5--0--0--5--0--0--3--0--0--2--0--0--1--0--0--1--0--0--0--0--0--0--0--0--

Riff 7&8 (I am not sure about the rhythm so listen to the song, 8 is also just 7 but tremolo picked)
B|-----------------
F|-----------------
D|-----------------
A|-----------------
E|-----5-----------
B|--6--5--1--3--0--

Bridge
B|--------------------------------------
F|--------------------------------------
D|--------------------------------------
A|--------------------------------------
E|--------------------------------------
B|--2--2--3--3--2--2--0--0--2-----------

Riff 9
B|--------------------------------------------------------------------------------------
F|--------------------------------------------------------------------------------------
D|--------------------------------------------------------------------------------------
A|--------------------------------------------------------------------------------------
E|--------------2--2--------------------------------------------2--2-----------2--1-----
B|--2--2--3--3--------3--3--2--2--2--2--2--2--2--2--2--2--3--3--------3--3--0--------1--





tabs and chords, guitar tabs, music transcription, music technology, deep learning, music information retrieval, transcribe into tabs & chords, chordify, music renditions, songsterr, reverbnation, tabulature, bollywood chords, ultimate guitar, yousician, guitar lessons, acoustic guitar, electric guitar, guitar tuner, 911 tabs