Guitar Tabs for Etude 1

(/) Slide Up  (\) Slide Down  (h) Hammer On  (p) Pull Off  (b) Bend (r) Release (v) Vibrato

[Intro] 2x
E|--------------------------------------------------
B|--1--------------1--------0--------------0--------
G|--2--------------2--------2--------------2--------
D|--------2-----------2-----------2-----------2-----
A|--0-----------0-----------------------------------
E|--------------------------3-----------3-----------

E|--------------------------------------------------
B|--1--------------1--------0--------------0--------
G|--2--------------2--------1--------------1--------
D|--------0-----------0-----------2-----------2-----
A|--------------------------------------------------
E|--1-----------1-----------0-----------0-----------


[Section 1]
E|--------------------------------------------------
B|--------3--------3--------------1--------1--------
G|--------------------------------------------------
D|--------3-----------3-----------2-----------2-----
A|--0-----------0-----------0-----------0-----------
E|--------------------------------------------------

E|--------------------------------------------------
B|--------0--------0--------------1--------1--------
G|--------------------------------------------------
D|--------0-----------0-----------2-----------2-----
A|--------------------------0-----------0-----------
E|--3-----------3-----------------------------------

E|--------------------------------------------------
B|--------3--------3--------------1--------1--------
G|--------------------------------------------------
D|--------3-----------3-----------2-----------2-----
A|--0-----------0-----------0-----------0-----------
E|--------------------------------------------------

E|--------------------------------------------------
B|--------0--------0--------1-----------------------
G|--------------------------------------------------
D|--------0-----------0-----2-----------------------
A|--------------------------0-----------------------
E|--3-----------3-----------------------------------


[Section 2]                                                     Dm
E|---8h10-8------7h8--7------5h7--5------3h5--3------1h3--1--------1--------------------
B|-----------------------------------------------------------------3--------------------
G|-----------------------------------------------------------------2--------------------
D|--------------------------------------------------------------------------------------
A|--------------------------------------------------------------------------------------
E|--------------------------------------------------------------------------------------
                                                                Am 
E|---7h8--7------5h7--5------3h5--3------1h3--1-----0--------------0--------------------
B|--------------------------------------------------------3--------1--------------------
G|-----------------------------------------------------------------2--------------------
D|-----------------------------------------------------------------2--------------------
A|--------------------------------------------------------------------------------------
E|--------------------------------------------------------------------------------------
                                                                E
E|---5h7--5------3h5--3------1h3--1------0h1--0-----------------------------------------
B|--------------------------------------------------3-----1--------1--------------------
G|-----------------------------------------------------------------2--------------------
D|-----------------------------------------------------------------2--------------------
A|--------------------------------------------------------------------------------------
E|--------------------------------------------------------------------------------------
                      Am
E|--0--1--0--------------------------------------
B|-----------3--1--0--1--------------------------
G|--------------------2--------------------------
D|--------------------2--------------------------
A|-----------------------------------------------
E|-----------------------------------------------


Now supports capo and sound effects for vibrato/pull-off/hammer/bends etc !!! Checkout help section
tabs and chords, guitar tabs, music contests, music covers, songsterr, reverbnation, renditions, tabulature, bollywood chords, ultimate guitar, yousician, guitar lessons, torrins, fender, gibson, acoustic guitar, electric guitar, youtube covers, gootar, guitar tuner, A-Z tabs, 911 tabs