Guitar Tabs for Dm Etude (bethoven)

(/) Slide Up  (\) Slide Down  (h) Hammer On  (p) Pull Off  (b) Bend (r) Release (v) Vibrato (x) Muted

Tabs for Song : 

Song lyrics here
E|--------1-----------1-----------1-----------1-----------0-----------0-----
B|--------3-----------3-----------3-----------3-----------3-----------3-----
G|-----2-----2-----2-----2-----2-----2-----2-----2-----0-----0-----0-----0--
D|--0-----------0-----------------------------------------------------------
A|--------------------------3-----------3-----------1-----------1-----------
E|--------------------------------------------------------------------------

E|--------0-----------0-----------1-----------1-----------0-----------0-----
B|--------3-----------3-----------3-----------3-----------3-----------2-----
G|-----0-----0-----0-----0-----2-----2-----2-----2-----0-----0-----0-----0--
D|--------------------------0-----------0-----------------------------------
A|--------------------------------------------------0-----------0-----------
E|--3-----------3-----------------------------------------------------------

E|--------1-----------1-----------0-----------0-----(3x)
B|--------3-----------3-----------2-----------2-----
G|-----2-----2-----2-----2-----0-----0-----0-----0--
D|--0-----------0-----------------------------------
A|--------------------------0-----------0-----------
E|--------------------------------------------------

E|-----------1-----------0-----------0-----------0-----------13-p--
B|--------3-----------3-----------2-----------10----------15----7--
G|-----2-----------2-----------3-----------10----------14-------7--
D|--0-----------0-----------0-----------0-----------0-----------7--
A|-----------------------------------------------------------------
E|-----------------------------------------------------------------

Song lyrics here
E|--
B|--
G|--
D|--
A|--
E|--

Paste any tab in acousterr's tab maker and we'll play it !!!
Now supports capo and sound effects for vibrato/pull-off/hammer/bends/mutes etc !!! Checkout help section
tabs and chords, guitar tabs, music transcription, music technology, deep learning, music information retrieval, transcribe into tabs & chords, chordify, music renditions, songsterr, reverbnation, tabulature, bollywood chords, ultimate guitar, yousician, guitar lessons, acoustic guitar, electric guitar, guitar tuner, 911 tabs