Guitar Tabs for Essendon Theme Song

(/) Slide Up  (\) Slide Down  (h) Hammer On  (p) Pull Off  (b) Bend (r) Release (v) Vibrato (x) Muted

Tabs for Song : 

Song lyrics herehhhfj
E|--------------------------3-----------4--------4--5--------8-----7--5-----3-----------------
B|--5--------6-----5--3-----------------------------------6-----------------------------------
G|--------5-----------------------------------------------------------------------------------
D|--------------------------------------------------------------------------------------------
A|--------------------------------------------------------------------------------------------
E|--------------------------------------------------------------------------------------------

E|-----------------------------6--6--6-----------------------------------------11-11-11-------
B|--3-----5-----6-----7-----8--------------------6--7-----8-----9-----10-11-12----------------
G|--------------------------------------------------------------------------------------------
D|--------------------------------------------------------------------------------------------
A|--------------------------------------------------------------------------------------------
E|--------------------------------------------------------------------------------------------

E|-----------------------------3-----------4--------4--5--------8-----7--5-----8-----------9--
B|-----5--------6-----5--3-----------------------------------6--------------------------------
G|-----------5--------------------------------------------------------------------------------
D|--------------------------------------------------------------------------------------------
A|--------------------------------------------------------------------------------------------
E|--------------------------------------------------------------------------------------------

E|--------10----8-----------------10----8-----------------8-----5--7-----8--10----8-----------
B|-----------------3-----5--6--------------5-----6--8-----------------------------------------
G|--------------------------------------------------------------------------------------------
D|--------------------------------------------------------------------------------------------
A|--------------------------------------------------------------------------------------------
E|--------------------------------------------------------------------------------------------







Song lyrics here


Paste any tab in acousterr's tab maker and we'll play it !!!
Now supports capo and sound effects for vibrato/pull-off/hammer/bends/mutes etc !!! Checkout help section
tabs and chords, guitar tabs, music transcription, music technology, deep learning, music information retrieval, transcribe into tabs & chords, chordify, music renditions, songsterr, reverbnation, tabulature, bollywood chords, ultimate guitar, yousician, guitar lessons, acoustic guitar, electric guitar, guitar tuner, 911 tabs