Ukulele Tabs for Enna Sona - Intro & Solo

(/) Slide Up  (\) Slide Down  (h) Hammer On  (p) Pull Off  (b) Bend (r) Release (v) Vibrato (x) Muted

Tabs for Song : Enna Sona Intro & Solo

Intro (Just play this through out the first verse)
A|-----1--------0--------1-----0-----------1--------0--------1-----0--
E|-----3-----1-----------3-----1-----------3-----1-----------3-----2--
C|--------------------3-----------------------------------3--------2--
G|--0-----------------------------------0-----------------------------

Solo Part1
A|--------------------------------------------5--5--
E|-----6--8------6h-8p6--5--6-----5--6--8-----------
C|--------------------------------------------------
G|--------------------------------------------------

Part2
A|--------5------5/8-----5------------8/10----6-----
E|-----8--------------------6--------------------8--
C|--------------------------------------------------
G|--------------------------------------------------

Part3
A|-----------------------------------------------
E|-----6--8--6--5--------5-----5--6--8---8/10----
C|-----------------7-----------------------------
G|-----------------------------------------------

Part4
A|--------5------5/8-----5--10----------------------------------------------------------
E|-----8-----------------------------1------3/6--6--5--------------------------1--------
C|-----------------------------------------------------1--------2--------0--------3--2--
G|--------------------------------------------------------------------------------------



Now supports capo and sound effects for vibrato/pull-off/hammer/bends/mutes etc !!! Checkout help section
tabs and chords, guitar tabs, music contests, music covers, songsterr, reverbnation, renditions, tabulature, bollywood chords, ultimate guitar, yousician, guitar lessons, torrins, fender, gibson, acoustic guitar, electric guitar, youtube covers, gootar, guitar tuner, A-Z tabs, 911 tabs