Guitar Tabs for Enna Sona

Tabs for Song : Enna Sona

Enna sona kyun rab ne bananya

E|-----------------------------1--------------------
B|-----3---1\3--3--3-----1--3--------4--3--1--3-----
G|--0-----------------------------------------------
D|--------------------------------------------------
A|--------------------------------------------------
E|--------------------------------------------------

Enna sona kyun rab ne bananya

E|--------------------------------------------------
B|-----3---1\3--3--3-----1--3--1--------------1-----
G|--0-----------------------------3--2--0-----------
D|--------------------------------------------------
A|--------------------------------------------------
E|--------------------------------------------------

Enna sona kyun rab ne bananya

E|-----------------------------1--------------------
B|-----3---1\3--3--3-----1--3--------4--3--1--3-----
G|--0-----------------------------------------------
D|--------------------------------------------------
A|--------------------------------------------------
E|--------------------------------------------------

Enna sona kyun rab ne bananya

E|--------------------------------------------------
B|-----3---1\3--3--3-----1--3--1--------------1-----
G|--0-----------------------------3--2--0-----------
D|--------------------------------------------------
A|--------------------------------------------------
E|--------------------------------------------------

Aavan jawan te main yaara nu manavan

E|--------------------------------------------------------
B|--------------------------------------------------------
G|--2-----0---2h3--2--0--0--2-----------------0--0--2-----
D|-----3--------------------------3-----3--3--------------
A|--------------------------------------------------------
E|--------------------------------------------------------

Aavan jawan te mein yaara nu manavan

E|--------------------------------------------------------
B|--------------------------------1-----------------------
G|--2-----0---2h3--2--0--0--2--3--------2--3--0--2--2-----
D|-----3--------------------------------------------------
A|--------------------------------------------------------
E|--------------------------------------------------------

Enna sona

E|--------------------------------
B|-----3--1--3--3-----1-----------
G|--0--------------------3--2--0--
D|--------------------------------
A|--------------------------------
E|--------------------------------

Enna sona

E|-----------1-----------------------------
B|--3--1--3-----4--3-----1--3-----1--3-----
G|-----------------------------3-----------
D|-----------------------------------------
A|-----------------------------------------
E|-----------------------------------------

Enna sona o..

E|-----------1--------------------------------
B|--3--1--3-----4--3-----3--1--3--3--1--3-----
G|--------------------------------------------
D|--------------------------------------------
A|--------------------------------------------
E|--------------------------------------------

Enna sona kyun rab ne bananya

E|--------------------------------------------------
B|-----3---1\3--3--3-----1--3--1--------------1-----
G|--0-----------------------------3--2--0-----------
D|--------------------------------------------------
A|--------------------------------------------------
E|--------------------------------------------------

Enna sona

E|--------------------------
B|--------------------------
G|--2-----0--0---2h3--2-----
D|-----3--------------------
A|--------------------------
E|--------------------------

Enna sona o..

E|-----------------------------
B|-----------------------------
G|--2--------0--0---2h3--2-----
D|-----3--3--------------------
A|-----------------------------
E|-----------------------------

Enna sona

E|-----------------------------
B|-----------------------------
G|--2--------0--0---2h3--2-----
D|-----3--3--------------------
A|-----------------------------
E|-----------------------------

Enna sona

E|-----------------------
B|-----------------------
G|--2-----0--0--2--0-----
D|-----3-----------------
A|-----------------------
E|-----------------------
tabs and chords, guitar tabs, music contests, music covers, songsterr, reverbnation, renditions, tabulature, bollywood chords, ultimate guitar, yousician, guitar lessons, torrins, fender, gibson, acoustic guitar, electric guitar, youtube covers, gootar, guitar tuner, A-Z tabs, 911 tabs