Bass Tabs for Enjoy The Silence - Anberlin

(/) Slide Up  (\) Slide Down  (h) Hammer On  (p) Pull Off  (b) Bend (r) Release (v) Vibrato (x) Muted

Tabs for Song : Enjoy the silence - Anberlin
BPM : 120

 Intro:
 
 x2     C                    D#
G|-------------------------|-----------------------|
D|-------------------------|-----------------------|
A|--3--3--3--3--3--3--3--3-|6-----6-----6-----6----|
E|-------------------------|-----------------------|

x2      C                    D#
G|-------------------------|-----------------------|
D|-------------------------|-----------------------|
A|--3--3--3--3--3--3--3--3-|6--6--6--6--6--6--6--6-|
E|-------------------------|-----------------------|


Verse:

 x2       C                    D#                      G#
G|-------------------------|-----------------------|-----------------------|-----------------------|
D|-------------------------|1-----1-----1-----1----|-----------------------|-----------------------|
A|--3-----3-----3-----3----|-----------------------|-----------------------|-----------------------|
E|-------------------------|-----------------------|4-----4-----4-----4----|4-----4-----4-----4----|

Chorus:

          F                   G#                       C                       A#
G|-------------------------|-----------------------|-----------------------|-----------------------|
D|-------------------------|-----------------------|-----------------------|-----------------------|
A|-------------------------|-----------------------|3--3--3--3--3--3--3--3-|1--1--1--1--1--1--1--1-|
E|--1--1--1--1--1--1--1--1-|4--4--4--4--4--4--4--4-|-----------------------|-----------------------|

          F                    G#                      C                        B
G|-------------------------|-----------------------|-----------------------|-----------------------|
D|-------------------------|-----------------------|-----------------------|-----------------------|
A|-------------------------|-----------------------|3--3--3--3--3--3--3--3-|2--2--2--2--2--2--2--2-|
E|--1--1--1--1--1--1--1--1-|4--4--4--4--4--4--4--4-|-----------------------|-----------------------|

          B                                                                     C
G|-------------------------|-----------------------|-----------------------|
D|-------------------------|-----------------------|-----------------------|
A|--2--2--2--2--2----------|-----------------------|-----------------------|
E|-------------------------|-----------------------|-----------------------|

x4        C                    D#
G|-------------------------|-----------------------|
D|-------------------------|-----------------------|
A|--3--3--3--3--3--3--3--3-|6--6--6--6--6--6--6--6-|
E|-------------------------|-----------------------|


 Verse:
 
x2        C                    D#                       G#                      G#
G|-------------------------|-----------------------|-----------------------|-----------------------|
D|-------------------------|1-----1-----1-----1----|-----------------------|-----------------------|
A|--3-----3-----3-----3----|-----------------------|-----------------------|-----------------------|
E|-------------------------|-----------------------|4-----4-----4-----4----|4-----4-----4-----4----|

Chorus 2:

          F                    G#                       C                       A#
G|-------------------------|-----------------------|-----------------------|-----------------------|
D|-------------------------|-----------------------|-----------------------|-----------------------|
A|-------------------------|-----------------------|3--3--3--3--3--3--3--3-|1--1--1--1--1--1--1--1-|
E|--1--1--1--1--1--1--1--1-|4--4--4--4--4--4--4--4-|-----------------------|-----------------------|

          F                    G#                       C                      B                       B
G|-------------------------|-----------------------|-----------------------|-----------------------|-----------------------|
D|-------------------------|-----------------------|-----------------------|-----------------------|-----------------------|
A|-------------------------|-----------------------|3--3--3--3--3--3--3--3-|2--2--2--2--2--2--2--2-|2--2--2--2--2--2--2--2-|
E|--1--1--1--1--1--1--1--1-|4--4--4--4--4--4--4--4-|-----------------------|-----------------------|-----------------------|

          F                    G#                       C                      A#
G|-------------------------|-----------------------|-----------------------|-----------------------|
D|-------------------------|-----------------------|-----------------------|-----------------------|
A|-------------------------|-----------------------|3--3--3--3--3--3--3--3-|1--1--1--1--1--1--1--1-|
E|--1--1--1--1--1--1--1--1-|4--4--4--4--4--4--4--4-|-----------------------|-----------------------|

          F                    G#                       C                      A#
G|-------------------------|-----------------------|-----------------------|-----------------------|
D|-------------------------|-----------------------|-----------------------|-----------------------|
A|-------------------------|-----------------------|3--3--3--3--3--3--3--3-|1--1--1--1--1--1--1--1-|
E|--1--1--1--1--1--1--1--1-|4--4--4--4--4--4--4--4-|-----------------------|-----------------------|

x2        C                    D@                       C                      D#
G|-------------------------|-----------------------|-----------------------|-----------------------|
D|-------------------------|-----------------------|-----------------------|-----------------------|
A|--3-----3-----3-----3----|6-----6-----6-----6----|3-----3-----3-----3----|6-----6-----6-----6----|
E|-------------------------|-----------------------|-----------------------|-----------------------|

          F                    G#                       C                      A#
G|-------------------------|-----------------------|-----------------------|-----------------------|
D|-------------------------|-----------------------|-----------------------|-----------------------|
A|-------------------------|-----------------------|3-----3-----3-----3----|1-----1-----1-----1----|
E|--1-----1-----1-----1----|4-----4-----4-----4----|-----------------------|-----------------------|

          F                    G#                       C                      B
G|-------------------------|-----------------------|-----------------------|-----------------------|
D|-------------------------|-----------------------|-----------------------|-----------------------|
A|-------------------------|-----------------------|3--3--3--3--3--3--3--3-|2--2--2--2--2--2--2--2-|
E|--1-----1-----1-----1----|4-----4-----4-----4----|-----------------------|-----------------------|

          B
G|-------------------------|
D|-------------------------|
A|--2--2--2--2--2--2--2--2-|
E|-------------------------|

Finish

x4        F                    G#                      C                       A#
G|-------------------------|-----------------------|-----------------------|-----------------------|
D|-------------------------|-----------------------|-----------------------|-----------------------|
A|-------------------------|-----------------------|3-----3-----3-----3----|1-----1-----1-----1----|
E|--1-----1-----1-----1----|4-----4-----4-----4----|-----------------------|-----------------------|

         C
G|-------------------------|
D|-------------------------|
A|--3----------------------|
E|-------------------------|




tabs and chords, guitar tabs, music transcription, music technology, deep learning, music information retrieval, transcribe into tabs & chords, chordify, music renditions, songsterr, reverbnation, tabulature, bollywood chords, ultimate guitar, yousician, guitar lessons, acoustic guitar, electric guitar, guitar tuner, 911 tabs