Riffs Enjoy The Silence Covered By Nada Surf - Guitar Tabs

(/) Slide Up  (\) Slide Down  (h) Hammer On  (p) Pull Off  (b) Bend (r) Release (v) Vibrato (x) Muted

Tabs for Song : 
BPM : 200

Intro - parte 1 (2x)
E|--------------------------
B|--------------------------
G|-----0-----4-----2-----0--
D|--------------------------
A|--3-----3-----3-----3-----
E|--------------------------

Intro parte 2 (2x)
E|--------------------------
B|--------------------------
G|-----------------2-----0--
D|-----3-----2--------------
A|--0-----0-----3-----3-----
E|--------------------------

Intro parte 3 (2x)
E|--------------------------------------------------
B|--------------------------------------------------
G|-----------------------------------------0--------
D|-----------------------0-----2-----3-----------0--
A|-----0-----2-----3--------------------------------
E|--3-----3-----3-----3-----3-----3-----3-----3-----

Acordes como em tablaturas encontradas na internet

Interl├║dio

Parte 1 (2x)

E|--------------------------------------------------
B|--------------------------------------------------
G|-----0-----4-----5-----0-----2-----0-----2-----0--
D|--------------------------------------------------
A|--3-----3-----3-----3-----3-----3-----3-----3-----
E|--------------------------------------------------

Parte 2 (2x)
E|--------------------------
B|--------------------------
G|-----------------2-----0--
D|-----3-----2--------------
A|--0-----0-----3-----3-----
E|--------------------------

Parte 3 (2x)
E|--------------------------------------------------
B|--------------------------------------------------
G|-----------------------------------------0--------
D|-----------------------0-----2-----3-----------0--
A|-----0-----2-----3--------------------------------
E|--3-----3-----3-----3-----3-----3-----3-----3-----

Use manual mode to free up cursor. Paste any tab in acousterr tab maker and we'll play it !!!
tabs and chords, guitar tabs, music transcription, music technology, deep learning, music information retrieval, transcribe into tabs & chords, chordify, music renditions, songsterr, reverbnation, tabulature, bollywood chords, ultimate guitar, yousician, guitar lessons, acoustic guitar, electric guitar, guitar tuner, 911 tabs