Bass Tabs for Elvis Presley - Jailhouse Rock

Elvis Presley - Jailhouse Rock

Intro
G|--------
D|-------- 
A|--4--5--   
E|--------

G|--------------------------
D|--------------------2-----
A|--------2--2--5--5-----5--
E|--3--3--------------------


G|--------------------4-----------------------4-----
D|--------4--4--7--7-----7--------4--4--7--7-----7--
A|--5--5--------------------5--5--------------------
E|--------------------------------------------------

G|--------------------------------------------------
D|--------------------4-----------------------2-----
A|--------4--4--7--7-----7--------2--2--5--5-----5--
E|--5--5--------------------3--3--------------------

G|-----------------------------------------------
D|--------4--4--7--7--4--7--------4--4--7--------
A|--5--5--------------------5--5-----------4--5--
E|-----------------------------------------------

Final
G|--------------------------------------------4-----
D|--------4--4--7--7--4--7--------4--4--7--7-----7--  Fade Out
A|--5--5--------------------5--5--------------------
E|--------------------------------------------------
tabs and chords, guitar tabs, music transcription, music technology, deep learning, music information retrieval, transcribe into tabs & chords, chordify, music renditions, songsterr, reverbnation, tabulature, bollywood chords, ultimate guitar, yousician, guitar lessons, acoustic guitar, electric guitar, guitar tuner, 911 tabs