Guitar Tabs for Elvis Presley - Can't Help Falling In Love

Elvis Presley - Can't Help Falling in Love

CAPO in 2nd Fret

Intro

    C                 G                    C                 C        C   
E|-----------0--------------------------------------------0--------3--------
B|--------------1--------------3-----------------1-----------1--------1-----
G|--------0--------0--------------0-----------0-----0-----------0--------0--
D|-----2--------------------0--------0-----2-----------2--------------------
A|--3--------------------2--------------3-----------------------------------
E|--------------------3-----------------------------------------------------

1st Verse

 (C)    (Em)  (Am)  (C/G)
Wise man say

      (F)     (C/E) (G)  (G/D)
Only fools rush in

 (F)      (G)     (Am)
But  I can't help

 (F)          (C/G)  (G)    (C) 
Falling in love with you

2nd Verse

  (C)    (Em)    (Am)  (C/G)
Shall I stay

          (F)  (C/E)  (G)  (G/D)
Would it be  a  sin

   (F)   (G)    (Am)
If I can't help

 (F)          (C/G)  (G)    (C) 
Falling in love with you?

Bridge

 (Em)            (B7)
Like a river flows

 (Em)            (B7)
Surely to the sea

 (Em)            (B7)
Darling so it goes

 (Em)         (A7)            (Dm)  (G)
Some things are meant to be

3rd Verse

 (C)     (Em)  (Am)  (C/G)
Take my  hand

          (F)    (C/E)  (G)  (G/D)
Take my whole life too

    (F)  (G)     (Am)
For I can't help

 (F)          (C/G)  (G)    (C) 
Falling in love with you

Bridge

 (Em)            (B7)
Like a river flows

 (Em)            (B7)
Surely to the sea

 (Em)            (B7)
Darling so it goes

 (Em)         (A7)            (Dm)  (G)
Some things are meant to be

4th Verse

 (C)     (Em)  (Am)  (C/G)
Take my  hand

          (F)    (C/E)  (G)  (G/D)
Take my whole life too

    (F)  (G)     (Am)
For I can't help

 (F)          (C/G)  (G)    (C) 
Falling in love with you

Ending

    (F)  (G)     (Am)
For I can't help

 (F)          (C/G)  (G)    (C) 
Falling in love with you

----------------------------------------------------------------------------------------
Chords

    C    C/E   C/G    Dm 
E|--0-----0-----0-----1--
B|--1-----1-----1-----3--
G|--0-----0-----0-----2--
D|--2-----2-----2-----0--
A|--3-----3-----3--------
E|--------0-----3--------

    Em    F     G    G/D
E|--0-----1-----3-----3--
B|--0-----1-----3-----3--
G|--0-----2-----0-----0--
D|--2-----3-----0-----0--
A|--2-----3-----2--------
E|--0-----1-----3--------

    A7    Am    B7
E|--0-----0-----2--
B|--2-----1-----4--
G|--0-----2-----2--
D|--2-----2-----4--
A|--0-----0-----2--
E|-----------------
tabs and chords, guitar tabs, music transcription, music technology, deep learning, music information retrieval, transcribe into tabs & chords, chordify, music renditions, songsterr, reverbnation, tabulature, bollywood chords, ultimate guitar, yousician, guitar lessons, acoustic guitar, electric guitar, guitar tuner, 911 tabs