Guitar Tabs for Can't Help Falling In Love- Elvis Presley

(/) Slide Up  (\) Slide Down  (h) Hammer On  (p) Pull Off  (b) Bend (r) Release (v) Vibrato (x) Muted

Tabs for Song : Can't Help Falling in Love- Elvis Presley
Capo 2 (All relative to capo)

E|-----------0-----------------------------------------------
B|--------------1--------------3-----------------1-----------
G|--------0--------0--------0-----0-----------0-----0--------
D|-----2-----------------0-----------0-----2-----------2-----
A|--3-----------------------------------3-----------------3--
E|--------------------3--------------------------------------

E|--------------------3--------------------------0-----------------0-----0--1-----------------0--------------------------0-----------------0-----------------------------------------------------0-----------0--1--0--------------------------------------------------------
B|--1--------1-----------0-----0--------1-----------1-----------1-----3--------1-----1-----------1-----1--------3-----------3-----------3-----3-----------------------0--------0--------1-----------1-----3-----------1-----1--------3--------3--------1--------1-----------
G|-----0--------0-----------0-----0--------2-----------2-----2--------------------2-----2-----------0-----0--------0-----------0-----0-----------0--2--------2-----------0--------0--------2-----------2-----------------0-----0--------0--------0--------0--------0--------
D|--------2--------2-----------------0--------2--------------------------------------------3-----------------2--------0--------------------------------3--------3-----------0--------0--------2-----------------------------------2--------0--------0--------2--------2-----
A|--3-----------------2-----------------0-----------------0-----------------3-----------------3-----------------------------------------------------------3--------3--------------------0--------------------------3-----------------------------------3-----------------3--
E|--------------------------------------------------------------------------------------------------------------3-----------------3-----------------1--------1--------3--------3-----------------------------------------------------3--------------------------------------


E|--------------------------------------------------------------------------------------------------------------------------0--3--0--1--------1--------3--------3--
B|--------------0-----------0--------------------0-----------0--------------------0-----------0--------1--1--------------1--------------3--------3--------3--------
G|--------0--2-----2-----2-----2-----------0--2-----2-----2-----2-----------0--2-----2-----2-----2--------------------2--------------------2--------2--------0-----
D|--2-----------------1-----------1--2-----------------1-----------1--2-----------------1-----------1--------------2-----------------0-----------------------------
A|-----------------2--------------------------------2--------------------------------2-----------------0--------0--------------------------------------------------
E|--0--------------------------------0--------------------------------0--------------------------------------------------------------------------------3--------3--


E|--------------3-----------------------------0--1-----------0--------------------------0-----------------------------------------------------0-----------0--1--0--------------------------------------------------------
B|--1-----------------------1--------------3-----------------------------3-----------3-----3-----------------------0--------0--------1-----------1-----3-----------1-----1--------3--------3--------1--------1-----------
G|--------------------------------------------------------------------------------0-----------0--2--------2-----------0--------0--------2-----------2-----------------0-----0--------0--------0--------0--------0--------
D|-----------------------------------------------------------------------------0--------------------3--------3-----------0--------0--------2-----------------------------------2--------0--------0--------2--------2-----
A|--3-----------2-----------0--------------------------------3-----------------------------------------3--------3--------------------0--------------------------------------------------------------3-----------------3--
E|-----------------------------------------------1-----------------------3-----------------------1--------1--------3--------3-----------------------------------3-----------------3--------------------------------------


E|--------------3-----------------------------0--1-----------0--------------------------0-----------------------------------------------------0-----------0--1--0-----------------------------------------------------------------------------------------------------------------0-----------0-----0--------3-----------3-----------0--------8--
B|--1-----------------------1--------------3-----------------------------3-----------3-----3-----------------------0--------0--------1-----------1-----3-----------1-----1--------3--------3--------1--------1-----------------1-----------------------0--------0--------1-----------1-----3-----1-----1--------3-----------1--------------8-----
G|--------------------------------------------------------------------------------0-----------0--2--------2-----------0--------0--------2-----------2-----------------0-----0--------0--------0--------0--------0-----------0-----0--2--------2-----------0--------0--------2-----------2-----------------0--------0-----------0--------9--------
D|-----------------------------------------------------------------------------0--------------------3--------3-----------0--------0--------2-----------------------------------2--------0--------0--------2--------2-----2--------------3--------3-----------0--------0--------2--------------------------------------0-----------2--------------
A|--3-----------2-----------0--------------------------------3-----------------------------------------3--------3--------------------0--------------------------3-----------------------------------3-----------------3--------------------3--------3--------------------0--------------------------3-----------------------3--------------------
E|-----------------------------------------------1-----------------------3-----------------------1--------1--------3--------3-----------------------------------------------------3--------------------------------------------------1--------1--------3--------3-----------------------------------------------3--------------------------------

Song lyrics here:
C= x32010
Em=x20003
Am=x02210
G=30003(3)
F=133211
Dm=xx0231
Bm7= x21200

[Intro]
C G C

[Verse]
C    Em	 Am
Wise men say

     F	    C    G
Only fools rush in

F     G	    Am               C    G    C    
But I can't help falling in love with you

C     Em  Am
Shall I stay?

         F  C  G
Would it be a sin

F     G     Am               C    G   C
If I can't help falling in love with you?

[Bridge]
Em            Bm7   
Like a river flows

Em            Bm7
Surely to the sea

Em             Bm7
Darling, so it goes

Am                       Dm  G
Some things are meant to be

C    Em  Am
Take my hand,

         F     C     G
Take my whole life, too

    F  G     Am              C     G   C
For I can't help falling in love with you

[Outro]
Em            Bm7   
Like a river flows

Em            Bm7
Surely to the sea

Em             Bm7
Darling, so it goes

Am                       Dm  G
Some things are meant to be

C    Em  Am
Take my hand,

         F     C     G
Take my whole life, too

    F  G     Am              C     G   C
For I can't help falling in love with you
   
    F  G     Am              C     G   C
For I can't help falling in love with you


Paste any tab in acousterr's tab maker and we'll play it !!!
Now supports capo and sound effects for vibrato/pull-off/hammer/bends/mutes etc !!! Checkout help section
tabs and chords, guitar tabs, music transcription, music technology, deep learning, music information retrieval, transcribe into tabs & chords, chordify, music renditions, songsterr, reverbnation, tabulature, bollywood chords, ultimate guitar, yousician, guitar lessons, acoustic guitar, electric guitar, guitar tuner, 911 tabs