Bass Tabs for Elvis Presley - Blue Suede Shoes

Elvis Presley - Blue Suede Shoes

Intro
G|--------------------------
D|--------------------------
A|--------------------------
E|--4--5-----4--5-----4--5--

G|-----------4--7--4--------
D|-----4--7-----------7--4--
A|--5-----------------------
E|--------------------------

G|--------------------------
D|-----------4--5--4--------
A|-----4--7-----------7--4--
E|--5-----------------------

G|-----------6-----------4--
D|-----6--9--------4--7-----
A|--7-----------5-----------
E|--------------------------

G|-----------------------------
D|-----------------------------
A|-----4--5--6--7--6--5--4-----
E|--5-----------------------5--

Ending
G|--------------------------------------------------
D|-----------4--7--4-----------------4--7--4--------
A|-----4--7-----------7--4-----4--7-----------7--4--
E|--5-----------------------5-----------------------


G|-----------4--5--4--------
D|-----4--7-----------7--4--
A|--5-----------------------
E|--------------------------

G|--------------------------
D|-----------4--5--4--------
A|-----4--7-----------7--4--
E|--5-----------------------

G|-----------6-----------4--
D|-----6--9--------4--7-----
A|--7-----------5-----------
E|--------------------------

G|-----------------
D|-----------------
A|-----4--5--6--7--
E|--5--------------

Last Note -> A
tabs and chords, guitar tabs, music transcription, music technology, deep learning, music information retrieval, transcribe into tabs & chords, chordify, music renditions, songsterr, reverbnation, tabulature, bollywood chords, ultimate guitar, yousician, guitar lessons, acoustic guitar, electric guitar, guitar tuner, 911 tabs