Mandolin Tabs for El Paso Marty Robbins (mandolin)

El Paso Mandolin Solo
(Intro)
E|-----------------------------------------------------------------------------------------------
A|-----------0-----------------2--------5-----5--5--5--4--2--2--0-----------5--------------------
D|--0--0--4-----4--0--2--2--5-----5--------------------------------2--0-----------5--4-----2--0--
G|-----------------------------------------------------------------------------------------------

E|----------------------------------------------------------------------
A|-----------0-----------------2--------------------------------------
D|--0--0--4-----4--0--2--2--5-----5-----------2--5--4--2--5--4--2--0--
G|--------------------------------------2--6--------------------------

E|--------------------------------------------------------------------
A|-----------0-----------------2--------------------------------------
D|--0--0--4-----4--0--2--2--5-----5-----------2--5--4--2--5--4--2--0--
G|--------------------------------------2--6--------------------------

E|--------------------------------------------------------------------
A|-----------0-----------------2--------------------------------------
D|--0--0--4-----4--0--2--2--5-----5-----------2--5--4--2--5--4--2--0--
G|--------------------------------------2--6--------------------------

E|--------------------------------------------------------------------
A|-----------0-----------------2--------------------------------------
D|--0--0--4-----4--0--2--2--5-----5-----------2--5--4--2--5--4--2--0--
G|--------------------------------------2--6--------------------------

E|-----------------------------------------------------------2-----0--------
A|--------0--2-----2--3--2--0--------------2--3--2--3--5--------------5--3--
D|--0--5-----------------------5-----0--5-----------------------------------
G|--------------------------------------------------------------------------

E|--------------------------------------------------------------------
A|--------0--5--5--2--5--2--0--------------0--2--3--2--0--3--2--0-----
D|--0--5-----------------------4--0-----0--------------------------5--
G|--------------------------------------------------------------------

E|--------------------------------------------------------------------------------------------
A|-----------------------------------0-----------------2--------------------------------------
D|--0--0--2--------0--------0--0--4-----4--0--2--2--5-----5-----------2--5--4--2--5--4--2--0--
G|-----------------------2--------------------------------------2--6--------------------------

tabs and chords, guitar tabs, music transcription, music technology, deep learning, music information retrieval, transcribe into tabs & chords, chordify, music renditions, songsterr, reverbnation, tabulature, bollywood chords, ultimate guitar, yousician, guitar lessons, acoustic guitar, electric guitar, guitar tuner, 911 tabs