Guitar Tabs for El Paso - Marty Robins Tabs

(/) Slide Up  (\) Slide Down  (h) Hammer On  (p) Pull Off  (b) Bend (r) Release (v) Vibrato

Tabs for Song : 

Song lyrics here
E|------------------------------------------------------------------2--2-----2--2-----2--2-----2--2-
B|-----------------------------0------2--2--2--2--0-----------------3--3-----3--3-----3--3-----3--3-
G|-----------2--------------0-----0---2--------------2--0-----------2--2-----2--2-----2--2-----2--2-
D|-----0--4-----4--0--2--2---------------------------------4--2--0-----------------0----------------
A|--0---------------------------------------------------------------------0-----------------0-------
E|--------------------------------------------------------------------------------------------------
                                                                                                     x4 
E|--------------------------------------------------------------------2--2-----2--2-----2--2-----2--2--
B|-----------------------------0--------------------------------------3--3-----3--3-----3--3-----3--3--
G|-----------2--------------0-----0-----------0-----------0-----------2--2-----2--2-----2--2-----2--2--
D|--0--0--4-----4--0--2--2-----------------2-----4--4--2-----4--2--0-----------------0-----------------
A|-----------------------------------0--4-----------------------------------0-----------------0--------
E|-----------------------------------------------------------------------------------------------------
                                                                                                     x2
E|-----------------------------------------------------------------2--------0--------------2--2-----2--2--
B|-----------0--0--0--1--0-----------------0--1--0--1--3-----------------------3--1--------1--1-----1--1--
G|-----0--0-----------------2--0--------0--------------------------------------------------2--2-----2--2--
D|--0--------------------------------0--------------------------------------------------0--------0--------
A|--------------------------------------------------------------------------------------------------------
E|--------------------------------------------------------------------------------------------------------

E|--------------------------------------------------------------------------------------------------------------
B|-----------3--3--3--3--1-----------------------1--0-----1--0--------------------------------------------------
G|--------2-----------------2-----------------2--------2--------2--0-----------0--2--------------------2--------
D|--0--4-----------------------4--0--0--0--4--------------------------------4-----------2-----0--0--4-----4--0--
A|-----------------------------------------------------------------------------------------4--------------------
E|--------------------------------------------------------------------------------------------------------------

E|--------------------------------------------------2--2-----2--2-----2--2-----2--------------------------
B|-----------0--------------------------------------3--3-----3--3-----3--3-----3--------------------------
G|--------0-----0--------------0--------0-----------2--2-----2--2-----2--2-----2-----------------2--------
D|--2--2--------------------2-----4--2-----4--2--0-----------------0-----------------0--0--0--4-----4--0--
A|--------------------0--4--------------------------------0-----------------0-----------------------------
E|--------------------------------------------------------------------------------------------------------

E|-----------------------------------------------------2--2-----2--2-----2--2-----2--2--
B|-----------0-----------------------------------------3--3-----3--3-----3--3-----3--3--
G|--------0-----0-----------------0--------0-----------2--2-----2--2-----2--2-----2--2--
D|--2--2-----------------------2-----4--2-----4--2--0-----------------0-----------------
A|--------------------0--0--4--------------------------------0-----------------0--------
E|--------------------------------------------------------------------------------------

E|--------------------------------------------------------------------2-----2---
B|-----------------------------0--------------------------------------3-----3---
G|-----------2--------------0-----0-----------0--------0--------------2-----2---
D|--0--0--4-----4--0--2--2-----------------2-----4--2-----4--2--0-----------0---
A|-----------------------------------0--4---------------------------------------
E|------------------------------------------------------------------------------

Song lyrics here
E|--
B|--
G|--
D|--
A|--
E|--

Now supports capo and sound effects for vibrato/pull-off/hammer/bends etc !!! Checkout help section
tabs and chords, guitar tabs, music transcription, music technology, deep learning, music information retrieval, transcribe into tabs & chords, chordify, music renditions, songsterr, reverbnation, tabulature, bollywood chords, ultimate guitar, yousician, guitar lessons, acoustic guitar, electric guitar, guitar tuner, 911 tabs