Guitar Tabs for Ed Sheeran - I See Fire

Ed Sheeran - I See Fire

CAPO in 6th Fret


Oh misty eye of the mountain below
Keep careful watch of my brothers souls
And should the sky be filled with fire and smoke
                           Em
Keep watching over Durin's sons
E|--------------------------0-----
B|--------------------------0-----
G|--------------------------0-----
D|--------------------------2-----
A|--------------------------2-----
E|--------------------------0-----

Intro
E|--------------------------------------------0-----x--
B|------------------------0h1------3h---3-----0-----x--
G|---2h-4p-2p0--------0---0--------0h2--2-----0-----x--
D|---------------0h2---------------0h---------2--------
A|------------------------3-------------------2--------
E|---0----------------------------------------0--------


1st Verse

             Em       G                    D9       C
If this is to end in fire, then we should all burn together
E|-----------0--------3--------------------0--------0--
B|-----------0--------3--------------------3--------1--
G|-----------0--------0--------------------2--------0--
D|-----------2--------0--------------------0--------2--
A|-----------2--------2-----------------------------3--
E|-----------0--------3--------------------------------

          Em          G     D9       Am7
Watch the flames climb high into the night
E|--------0-----------3-----0--------0--
B|--------0-----------3-----3--------1--
G|--------0-----------0-----2--------0--
D|--------2-----------0-----0--------2--
A|--------2-----------2--------------0--
E|--------0-----------3-----------------

       Em    G           D           C
Calling out father, oh, stand by and we will
E|-----0-----3-----------0-----------0--
B|-----0-----3-----------3-----------1--
G|-----0-----4-----------2-----------0--
D|-----2-----5-----------0-----------2--
A|-----2-----5-----------------------3--
E|-----0-----3--------------------------

          Am7         Bm             C
Watch the flames burn auburn on the mountain side
E|--------0-----------2--------------0--
B|--------1-----------3--------------1--
G|--------0-----------4--------------0--
D|--------2-----------4--------------2--
A|--------0-----------2--------------3--
E|--------------------------------------

E|--------------------------------------------0-----x--
B|------------------------0h1------3h---3-----0-----x--
G|---2h-4p-2p0--------0---0--------0h2--2-----0-----x--
D|---------------0h2---------------0h---------2--------
A|------------------------3-------------------2--------
E|---0----------------------------------------0--------

2nd Verse

                 Em      G                     D9      C
And if we should die tonight, then we should all die together
E|---------------0-------3---------------------0-----0--------
B|---------------0-------3---------------------3-----1--------
G|---------------0-------0---------------------2-----0--------
D|---------------2-------0---------------------0-----2--------
A|---------------2-------2---------------------------3--------
E|---------------0-------3------------------------------------

          Em          G     D9       Am7
Raise a glass of wine for the last time
E|--------0-----------3-----0--------0--
B|--------0-----------3-----3--------1--
G|--------0-----------0-----2--------0--
D|--------2-----------0-----0--------2--
A|--------2-----------2--------------0--
E|--------0-----------3-----------------
        Em   G          D9         C
Calling out father, oh, prepare as we will
E|------0----3----------0----------0--------
B|------0----3----------3----------1--------
G|------0----0----------2----------0--------
D|------2----0----------0----------2--------
A|------2----2---------------------3--------
E|------0----3------------------------------
         Am7          Bm             C
Watch the flames burn auburn on the mountain side
E|--------0-----------2--------------0-----------
B|--------1-----------3--------------1-----------
G|--------0-----------4--------------0-----------
D|--------2-----------4--------------2-----------
A|--------0-----------2--------------3-----------
E|-----------------------------------------------

    Am7    Bm             C
Desolation comes upon the sky
E|--0------2--------------0--
B|--1------3--------------1--
G|--0------4--------------0--
D|--2------4--------------2--
A|--0------2--------------3--
E|---------------------------

Chorus

          Em    C     D          Em
Now I see fire,      inside the mountain
E|--------0-----0-----2-----------0-----
B|--------0-----1-----3-----------0-----
G|--------0-----0-----2-----------0-----
D|--------2-----2-----0-----------2-----
A|--------2-----3-----------------2-----
E|--------0-----------------------0-----

      Em     C     D           Em
I see fire,       burning the trees
E|-----0-----0-----2-----------0-----
B|-----0-----1-----3-----------0-----
G|-----0-----0-----2-----------0-----
D|-----2-----2-----0-----------2-----
A|-----2-----3-----------------2-----
E|-----0-----------------------0-----
          Em    C     D          Em
And I see fire,      hollowing souls
E|--------0-----0-----2-----------0-----
B|--------0-----1-----3-----------0-----
G|--------0-----0-----2-----------0-----
D|--------2-----2-----0-----------2-----
A|--------2-----3-----------------2-----
E|--------0-----------------------0-----

      Em     C     D          Am7
I see fire,       blood in the breeze... And I hope that you'll remember me
E|-----0-----0-----2-----------0-----
B|-----0-----1-----3-----------1-----
G|-----0-----0-----2-----------0-----
D|-----2-----2-----0-----------2-----
A|-----2-----3-----------------0-----
E|-----0-----------------------------

E|--------------------------------------------0-----x--
B|------------------------0h1------3h---3-----0-----x--
G|---2h-4p-2p0--------0---0--------0h2--2-----0-----x--
D|---------------0h2---------------0h---------2--------
A|------------------------3-------------------2--------
E|---0----------------------------------------0--------

3rd Verse

              Em     G                  D9         C
Oh, should my people fall, then surely I'll do the same
E|------------0------3------------------0----------0--
B|------------0------3------------------3----------1--
G|------------0------0------------------2----------0--
D|------------2------0------------------0----------2--
A|------------2------2-----------------------------3--
E|------------0------3--------------------------------

            Em       G                D9            Am7
Confined in mountain halls we got too close to the flame
E|-----------0-------3----------------0--------------0--
B|-----------0-------3----------------3--------------1--
G|-----------0-------0----------------2--------------0--
D|-----------2-------0----------------0--------------2--
A|-----------2-------2-------------------------------0--
E|-----------0-------3----------------------------------

        Em     G        D             C
Calling out father, oh, hold fast and we will
E|------0------3---------0-------------0--
B|------0------3---------3-------------1--
G|------0------0---------2-------------0--
D|------2------0---------0-------------2--
A|------2------2-----------------------3--
E|------0------3--------------------------

          Am7         Bm            C
Watch the flames burn auburn on the mountain side
E|--------0-----------2--------------0--
B|--------1-----------3--------------1--
G|--------0-----------4--------------0--
D|--------2-----------4--------------2--
A|--------0-----------2--------------3--
E|--------------------------------------

    Am7    Bm             C
Desolation comes upon the sky
E|--0------2--------------0--
B|--1------3--------------1--
G|--0------4--------------0--
D|--2------4--------------2--
A|--0------2--------------3--
E|-----------------------------

Chorus

          Em    C     D          Em
Now I see fire,      inside the mountain
E|--------0-----0-----2-----------0-----
B|--------0-----1-----3-----------0-----
G|--------0-----0-----2-----------0-----
D|--------2-----2-----0-----------2-----
A|--------2-----3-----------------2-----
E|--------0-----------------------0-----

      Em     C     D           Em
I see fire,       burning the trees
E|-----0-----0-----2-----------0-----
B|-----0-----1-----3-----------0-----
G|-----0-----0-----2-----------0-----
D|-----2-----2-----0-----------2-----
A|-----2-----3-----------------2-----
E|-----0-----------------------0-----
          Em    C     D          Em
And I see fire,      hollowing souls
E|--------0-----0-----2-----------0-----
B|--------0-----1-----3-----------0-----
G|--------0-----0-----2-----------0-----
D|--------2-----2-----0-----------2-----
A|--------2-----3-----------------2-----
E|--------0-----------------------0-----

      Em     C     D          Am7                                       Am7
I see fire,       blood in the breeze... And I hope that you'll remember me
E|-----0-----0-----2-----------0-----------------------------------------0--
B|-----0-----1-----3-----------1-----------------------------------------1--
G|-----0-----0-----2-----------0-----------------------------------------0--
D|-----2-----2-----0-----------2-----------------------------------------2--
A|-----2-----3-----------------0-----------------------------------------0--
E|-----0--------------------------------------------------------------------

Bridge

            Am7     Em                D       C
And if the night is burning, I will cover my eyes
E|-----------0------0-----------------2-------0--
B|-----------1------0-----------------3-------1--
G|-----------0------0-----------------2-------0--
D|-----------2------2-----------------0-------2--
A|-----------0------2-------------------------3--
E|------------------0----------------------------

           Am7    Em               D          C
For if the dark returns then my brothers will die
E|----------0-----0------------ ---2----------0-----
B|----------1-----0----------------3----------1-----
G|----------0-----0----------------2----------0-----
D|----------2-----2----------------0----------2-----
A|----------0-----2---------------------------3-----
E|----------------0----------------------------------

           Am7            Em                D                C
And as the sky is falling down it crashed into this lonely town
E|----------0--------------0------------ ---2----------------0-----
B|----------1--------------0----------------3----------------1-----
G|----------0--------------0----------------2----------------0-----
D|----------2--------------2----------------0----------------2-----
A|----------0--------------2---------------------------------3-----
E|-------------------------0----------------------------------------

              Am7                    Bm          C              D
And with that shadow upon the ground I hear my people screaming out
E|-------------0---------------------2-----------0--------------0-----
B|-------------1---------------------3-----------1--------------1-----
G|-------------0---------------------4-----------0--------------0-----
D|-------------2---------------------4-----------2--------------2-----
A|-------------0---------------------2-----------3--------------3-----
E|---------------------------------------------------------------------


Last Chorus

          Em    C     D          Em
Now I see fire,      inside the mountain
E|--------0-----0-----2-----------0-----
B|--------0-----1-----3-----------0-----
G|--------0-----0-----2-----------0-----
D|--------2-----2-----0-----------2-----
A|--------2-----3-----------------2-----
E|--------0-----------------------0-----

      Em     C     D           Em
I see fire,       burning the trees
E|-----0-----0-----2-----------0-----
B|-----0-----1-----3-----------0-----
G|-----0-----0-----2-----------0-----
D|-----2-----2-----0-----------2-----
A|-----2-----3-----------------2-----
E|-----0-----------------------0-----
          Em    C     D          Em
And I see fire,      hollowing souls
E|--------0-----0-----2-----------0-----
B|--------0-----1-----3-----------0-----
G|--------0-----0-----2-----------0-----
D|--------2-----2-----0-----------2-----
A|--------2-----3-----------------2-----
E|--------0-----------------------0-----

      Em     C     D          Em
I see fire,       blood in the breeze
E|-----0-----0-----2-----------0-----
B|-----0-----1-----3-----------0-----
G|-----0-----0-----2-----------0-----
D|-----2-----2-----0-----------2-----
A|-----2-----3-----------------2-----
E|-----0-----------------------0-----

      Em           C                 D        Em
I see fire, oh you know I saw a city burning 
E|-----0-----------0-----------------2--------0--
B|-----0-----------1-----------------3--------0--
G|-----0-----------0-----------------2--------0--
D|-----2-----------2-----------------0--------2--
A|-----2-----------3--------------------------2--
E|-----0--------------------------------------0--
      Em        C                 D     Em
I see fire, feel the heat upon my skin 
E|-----0--------0-----------------2-----0--
B|-----0--------1-----------------3-----0--
G|-----0--------0-----------------2-----0--
D|-----2--------2-----------------0-----2--
A|-----2--------3-----------------------2--
E|-----0--------------------------------0--
          Em    C     D    Em
And I see fire
E|--------0-----0-----2-----0-----
B|--------0-----1-----3-----0-----
G|--------0-----0-----2-----0-----
D|--------2-----2-----0-----2-----
A|--------2-----3-----------2-----
E|--------0-----------------0-----

          Em         C            D        Em
And I see fire burn auburn on the mountain side
E|--------0-----------0-----------2--------0-----
B|--------0-----------1-----------3--------0-----
G|--------0-----------0-----------2--------0-----
D|--------2-----------2-----------0--------2-----
A|--------2-----------3--------------------2-----
E|--------0--------------------------------0-----

tabs and chords, guitar tabs, music transcription, music technology, deep learning, music information retrieval, transcribe into tabs & chords, chordify, music renditions, songsterr, reverbnation, tabulature, bollywood chords, ultimate guitar, yousician, guitar lessons, acoustic guitar, electric guitar, guitar tuner, 911 tabs