Guitar Tabs for Scales

(/) Slide Up  (\) Slide Down  (h) Hammer On  (p) Pull Off  (b) Bend (r) Release (v) Vibrato

Tabs for Song : 

Song lyrics here
E|-----------------12-------------------------------5--------------------------------10----------------
B|--------------5-----5--------------------------8-----8--------------------------3-----3--------------
G|-----------9-----------9--------------------2-----------2--------------------7-----------7-----------
D|--------2-----------------2--------------7-----------------7--------------12----------------12-------
A|-----7-----------------------7--------12----------------------12-------5-----------------------5-----
E|--12----------------------------12-5-----------------------------5--10----------------------------10-

Song lyrics here
E|-----------------3--------------------------------7--------------------------------7-----------------
B|--------------8-----8--------------------------12----12-------------------------1-----1----------------
G|-----------12----------12-------------------4-----------4--------------------5-----------5--------------
D|--------5-----------------5--------------7-----------------7--------------10----------------10----------
A|-----10----------------------10-------2-----------------------2--------3--------------------------3-----
E|--3-----------------------------3--7-----------------------------7--8--------------------------------8--

E|-----------------1-----------------
B|--------------6-----6--------------
G|-----------10----------10----------
D|--------3-----------------3--------
A|-----8-----------------------8-----
E|-1------------------------------1--

E|--
B|--
G|--
D|--
A|--
E|--

Now supports capo and sound effects for vibrato/pull-off/hammer/bends etc !!! Checkout help section

tabs and chords, guitar tabs, music transcription, music technology, deep learning, music information retrieval, transcribe into tabs & chords, chordify, music renditions, songsterr, reverbnation, tabulature, bollywood chords, ultimate guitar, yousician, guitar lessons, acoustic guitar, electric guitar, guitar tuner, 911 tabs