Guitar Tabs for Duniyaa-luka Chuppi

(/) Slide Up  (\) Slide Down  (h) Hammer On  (p) Pull Off  (b) Bend (r) Release (v) Vibrato (x) Muted

Tabs for Song : 
BPM : 200

bulave tujhe yaare aj mere galiya 
E|-----------------------------------------------
B|-----------------------------------------------
G|--3--2--3--0--2--0------------2h0--0------2h0--
D|--------------------3--3--3-----------3--------
A|-----------------------------------------------
E|-----------------------------------------------

bassau tere saang me alag duniya 
E|--------------------------------------------
B|--------------------------------------------
G|--3--2--3--0--2--0--------2--3--2--2--0--0--
D|--------------------3--3--------------------
A|--------------------------------------------
E|--------------------------------------------
na aye kabi dono me zara bhi faasle
E|--------------------------------------------
B|--------------------------------------------
G|--3--2--3--0--2--0--------0--0--5--3--2--3--
D|--------------------3--3--------------------
A|--------------------------------------------
E|--------------------------------------------
bas ek tu hu ek me hu aur koi na
E|------------------------------------------------
B|--------------------------------------------
G|--3--2--3--0--2--0--------2--3--2--2--0--0--
D|--------------------3--3--------------------
A|--------------------------------------------
E|--------------------------------------------
ha mera sab kuch tera tu samajhle
E|-----------------------------------------------
B|--4--3--4--1--3--1--------3---3/4--3--3--1--1--
G|--------------------3--3-----------------------
D|-----------------------------------------------
A|-----------------------------------------------
E|-----------------------------------------------
tu chahe mere hak ki zameen rakh le
E|--------------------------------------------
B|--3--1--3--1--3-----------1---1/3--1--------
G|-----------------2--2--2--------------3--3--
D|--------------------------------------------
A|--------------------------------------------
E|--------------------------------------------
tu saanso pe bhi naam tera tu likh de
E|-----------------------------1-----------
B|--4--3--4--1--3--1--------3-----4---3\1--
G|--------------------3--3-----------------
D|-----------------------------------------
A|-----------------------------------------
E|-----------------------------------------
me jiyo jab jab teraa dil dhadke
E|--------------------------------------------------------------------------------------------
B|--3--1--3--1--3-----------1---1/3--1--------------1--------------------------------1--------
G|-----------------2--2--2--------------3--3-----2--------2--3--2--0--2-----0--3--2-----2--3--
D|-----------------------------------------------------------------------3--------------------
A|--------------------------------------------------------------------------------------------
E|--------------------------------------------------------------------------------------------


E|--------------------------------------------------------------
B|-----------1--------------------------3--1--3--4---3h4--1-----
G|--3-----2--------2--3--2--0--2-----0-----------------------3--
D|--------------------------------3-----------------------------
A|--------------------------------------------------------------
E|--------------------------------------------------------------

E|-----------------------------------------------------
B|-----------1--------------------------------1--------
G|--3-----2--------2--3--2--0--2-----0--3--2-----2--3--
D|--------------------------------3--------------------
A|-----------------------------------------------------
E|-----------------------------------------------------

E|---------------------------------------------------------------
B|-----------1--------------------------3--1--3--4---3h4--1-----
G|--3-----2--------2--3--2--0--2-----0-----------------------3--
D|--------------------------------3-----------------------------
A|--------------------------------------------------------------
E|--------------------------------------------------------------
-




Use manual mode to free up cursor. Paste any tab in acousterr tab maker and we'll play it !!!---
tabs and chords, guitar tabs, music transcription, music technology, deep learning, music information retrieval, transcribe into tabs & chords, chordify, music renditions, songsterr, reverbnation, tabulature, bollywood chords, ultimate guitar, yousician, guitar lessons, acoustic guitar, electric guitar, guitar tuner, 911 tabs