Guitar Tabs for Duniyaa From "luka Chuppi"

(/) Slide Up  (\) Slide Down  (h) Hammer On  (p) Pull Off  (b) Bend (r) Release (v) Vibrato (x) Muted

DUNIYA "LUKA CHUPPI": 
BPM : 95

Bulave tujhe yaar aaj meri galiyaan
E|--E|---5/6--5--6-----5---------------3h-5p3--3-----------------
B|--------------8------8\6--6--6--------------6---6/10-------

Basau tere sang mai alag duniyaa 
E|--E|---5/6--5--6-----5-----------5---5h-6p5--5-----------
B|--------------8-----8--6--6-----------------8--8-----

Na aayein kabhi dono mein zara bhi faasle
E|---5/6--5--6-----5--------------------8--6---5h-6p-5h6-----
B|--------------8-----8--6--6--8--8--8-----------------------

Bas ek tu ho ek main hoon aur koyi na
E|---5/6--5--6-----5-----------5---5h-6p5--5-----------
B|--------------8-----8--6--6-----------------8--8-----

Hai mera sab kuchh tera tu samajh le
E|--10/11-10-11----10----------10-10h11p10-10----------
B|--------------13----13-11-11----------------13-13----

Tu chaahe mere hakk ki zameen rakh le
E|---8/10-8--10----8-----------8---8h10p8--8-----------
B|--------------11----11-10-10----------------11-11----

Tu saanson pe bhi naam tera likh de
E|--10/11-10-11----10----10----10-10-13-11-10h11p10-------
B|--------------13----------11----------------------13----

Main jiyun jab jab tera dil dhadke
E|--8--8--10-8--8--8--------8---8h10p8--8-----------------------
B|--------------------10-10----------------11-11----10-11/13----

music
E|-----------------------------------------------------------------------------------
B|--10/11----10-11/13----10-10/11----10\8--10----8--10/11----10-11/13----10-10/11----
G|--------------------------------------------10-------------------------------------
D|-----------------------------------------------------------------------------------
A|-----------------------------------------------------------------------------------
E|-----------------------------------------------------------------------------------

E|--------------------------------------------------
B|--10/11----10-11/13----10-10/11----10\8--10----8--
G|--------------------------------------------10----
D|--------------------------------------------------
A|--------------------------------------------------
E|--------------------------------------------------

E|--10-8--10-11-10--8\6--6---6/8-----------------------------------------------------
B|-----------------------------------11-10-11-8--10-10/11----10-11/13----10-10/11----
G|-----------------------------------------------------------------------------------
D|-----------------------------------------------------------------------------------
A|-----------------------------------------------------------------------------------
E|-----------------------------------------------------------------------------------


is se mera yeh jee nahi bharta
E|-----13/15----13----13h15p13-13----11h13p11-10----8--8--10-11-10--8h10p8--------
B|--11----------------------------------------------------------------------11----
G|--------------------------------------------------------------------------------
D|--------------------------------------------------------------------------------
A|--------------------------------------------------------------------------------
E|--------------------------------------------------------------------------------

Kuchh bhi nahi asar ab karta
E|-----13/15----13----13h15p13-13----11h13p11-10----8--8--10-11-10--8h10p8--------------------------
B|--11----------------------------------------------------------------------11----10h11p10-11/13----
G|--------------------------------------------------------------------------------------------------
D|--------------------------------------------------------------------------------------------------
A|--------------------------------------------------------------------------------------------------
E|--------------------------------------------------------------------------------------------------

Meri raah tujhse meri chaah tujhse
Mujhe bas yahin reh jaana
E|-----------------------------------------------------------------------10-10-------------------------
B|--11/13-11-13----13-11-13-11-13-11-13----13-11-13-11-13-11----13-13-13-------13-13-11-10h11p10-------
G|-----------------------------------------------------------------------------------------------12----

Use manual mode to free up cursor. Paste any tab in acousterr tab maker and we'll play it !!!
tabs and chords, guitar tabs, music transcription, music technology, deep learning, music information retrieval, transcribe into tabs & chords, chordify, music renditions, songsterr, reverbnation, tabulature, bollywood chords, ultimate guitar, yousician, guitar lessons, acoustic guitar, electric guitar, guitar tuner, 911 tabs