Bass Tabs for Dire Straits - Sultans Of Swing

Dire Straits - Sultans of Swing

Intro
G|-----------------------------------------------------------------------
D|-----------------------------------------------------------------------
A|--5-----5--5-----5--------3-----3--5-----5--5-----5-----5--5--------5--
E|-----------------------5-----5---------------------------------5h7-----

G|--------------------------------------------------------------
D|--------------------------------------------------------------
A|--5--5-----5--------3-----3--5-----5--5-----5-----5--3-----3--
E|-----------------5-----5--------------------------------5-----

Verse
G|--------------------------------------------------------------
D|--------------------------------------------------------------  2x
A|--5-----5--5-----3-----1--------------------------------------
E|-----------------------------5-----5--5-----5-----5--5-----5--

G|-----------------------------------------------------
D|--3--3--------3--3-----------------------------------
A|---------3h5--------5-----3--3--------3--3-----------
E|-----------------------3---------3h5------------3h5--

G|-----------------------------------------------------------------------------------
D|-----------------------------------------------------------------------------------
A|--1--1--------1--1--------5--5--------5--1--1--1--3-----3--3-----3-----3--3--------
E|---------1h3---------1h3---------3h5------------------------------------------5h7--

G|--------------------------------------------------------------
D|--------------------------------------------------------------  2x
A|--5-----5--5-----3-----1--------------------------------------
E|-----------------------------5-----5--5-----5-----5--5-----5--

G|--------------------------------------------------
D|--3--3--------------------------------------------
A|---------3h5-----------3--3--------3--3-----------
E|--------------1--1------------3h5------------3h5--

G|-----------------------------------------------------------------------------------
D|-----------------------------------------------------------------------------------
A|--1--1--------1--1--------5--5--------5--1--1--1--3-----3--3-----3-----1--1--1--3--
E|---------1h3---------1h3---------3h5-----------------------------------------------

G|-----------------------------
D|-----------------------------
A|--3--3-----3-----3--3--------
E|------------------------3h5--

Chorus
G|-----------------------------------------------------
D|-----------------------------------------------------  2x
A|--5--5--3--1--1--------1-----3--3--------3--3-------- 
E|------------------1h3---------------3h5---------3h5--

Last Guitar Solo
G|-----------------------------------------------------
D|-----------------------------------------------------  3x
A|--5--5--3--1--1--------1-----3--3--------3--3-------- 
E|------------------1h3---------------3h5---------3h5--

G|--------------------------------------------------------
D|--------7--5--------------------------------------------  Till The End
A|--5--5--------8--1--1--------1--3--3--------3--3--------
E|------------------------1h3------------3h5---------3h5--
tabs and chords, guitar tabs, music contests, music covers, songsterr, reverbnation, renditions, tabulature, bollywood chords, ultimate guitar, yousician, guitar lessons, torrins, fender, gibson, acoustic guitar, electric guitar, youtube covers, gootar, guitar tuner, A-Z tabs, 911 tabs