Guitar Tabs for Sultans Of Swing

Sultans of Swing:

CHORDS:

E|--5--5--5-----5--5--5-----5--5--------------------------------------------------------------
B|--6--6--6-----6--6--6-----6--6--------------------------------------------------------------
G|--7--7--7-----7--7--7-----7--7-----3-----3-----3------3/5-----5--5--5-----5--5--5-----5--5--
D|--7--7--7-----7--7--7-----7--7-----3-----3-----3------3/5-----5--5--5-----5--5--5-----5--5--
A|--5--5--5-----5--5--5-----5--5-----1-----1-----1------1/3-----3--3--3-----3--3--3-----3--3--
E|--------------------------------------------------------------------------------------------

LEAD:

E|-----------------------------------------------------------------------------
B|-----------------------------------6-----------------------------------------
G|-----------7--------10-7-----7-----7-----7------7/9-----------------------5--
D|---5/7--------7--------------8-----------8------8/10-------------5--7--------
A|--------------------------------------------------------5--7-----------------
E|-----------------------------------------------------------------------------





tabs and chords, guitar tabs, music transcription, music technology, deep learning, music information retrieval, transcribe into tabs & chords, chordify, music renditions, songsterr, reverbnation, tabulature, bollywood chords, ultimate guitar, yousician, guitar lessons, acoustic guitar, electric guitar, guitar tuner, 911 tabs