Guitar Tabs for Dil Ko Tumse Pyaar Hua

(/) Slide Up  (\) Slide Down  (h) Hammer On  (p) Pull Off  (b) Bend (r) Release (v) Vibrato (x) Muted
E|-----------------------------------------------------------
B|-----------------------------------------------------------
g|---4/5--5--5--5--5--5--4--------4--5--5--5--5--7--5--4-----
d|--------------------------7--7--------------------------7--
A|-----------------------------------------------------------
E|-----------------------------------------------------------

E|--------------------------------------------------------------------
b|-----------------------------------------------5--------5-----------
g|---4/5--5--5--5--5--5--4--------4--5--5--5--------7--------5--4-----
d|--------------------------7--7-----------------------------------7--
A|--------------------------------------------------------------------
E|--------------------------------------------------------------------

E|-----------------------------------------------------
B|-----------------------------------------------------
g|--5--7---7/9--5--7---7/9--5--7--7---7/10-9--7---5\4--
D|-----------------------------------------------------
A|-----------------------------------------------------
E|-----------------------------------------------------

E|-----------------------------------------------------
B|-----------------------------------------------------
g|--5--7---7/9--5--7---7/9--5--7--7---7/10-9--7---5\4--
D|-----------------------------------------------------
A|-----------------------------------------------------
E|-----------------------------------------------------

E|-----------------------------------------------------
b|--5--8---8/10-8--10-8--10-8--5-----------------------
g|-----------------------------------7--5--7--5--------
d|--------------------------------------------------7--
A|-----------------------------------------------------
E|-----------------------------------------------------

E|-----------------------------------------------------
b|--5--8---8/10-8--10-8--10-8--5-----------------------
g|-----------------------------------7--5--7--5--------
d|--------------------------------------------------7--
A|-----------------------------------------------------
E|-----------------------------------------------------

E|-----------------------------------------------------------------------------------------------
B|-----------------------------------------------------------------------------------------------
g|-----5--7--7--9--9--9--------5--7--7--9--9--9-----------5--7--7--9-----7--9--7--9--7--9--7--9--
d|--7--------------------7--------------------------7--------------------------------------------
A|-----------------------------------------------------------------------------------------------
E|-----------------------------------------------------------------------------------------------

E|--------------------------------------------------------------------------
B|--------------------------------------------------------------------------
g|--2--4---4/5---5/7--5--4--2--4---4/5--4--2--------2------2/4--2-----------
d|-----------------------------------------------5-----------------5--0--2--
A|--------------------------------------------------------------------------
E|--------------------------------------------------------------------------

E|--------------------------------------------------------------------------
B|--------------------------------------------------------------------------
g|--2--4---4/5---5/7--5--4--2--4---4/5--4--2--------2------2/4--2-----------
d|-----------------------------------------------5-----------------5--0--2--
A|--------------------------------------------------------------------------
E|--------------------------------------------------------------------------

E|--------------------------------------------------------------------------------------------------------
b|---3/5-----------5---------------3/5--------------5---------------3/5--------------6--5-----------------
g|--------5--7--7-----7--5--------------5--7--7-----------7--5--------------5--7--7-----------7--5---7/9--
d|-----------------------------7--------------------------------7-----------------------------------------
A|--------------------------------------------------------------------------------------------------------
E|--------------------------------------------------------------------------------------------------------

E|--------------------------------------------------------------------------------------------------------
b|---3/5-----------5---------------3/5--------------5---------------3/5--------------6--5-----------------
g|--------5--7--7-----7--5--------------5--7--7-----------7--5--------------5--7--7-----------7--5-----4--
d|-----------------------------7--------------------------------7-----------------------------------------
A|--------------------------------------------------------------------------------------------------------
E|--------------------------------------------------------------------------------------------------------

E|--------------------------------------------------------------------------
B|--------------------------------------------------------------------------
g|--2--4---4/5---5/7--5--4--2--4---4/5--4--2--------2------2/4--2-----------
d|-----------------------------------------------5-----------------5--0--2--
A|--------------------------------------------------------------------------
E|--------------------------------------------------------------------------





























Tabs for Song : 

Song lyrics here
E|--
B|--
G|--
D|--
A|--
E|--

Song lyrics here
E|--
B|--
G|--
D|--
A|--
E|--

Paste any tab in acousterr's tab maker and we'll play it !!!
Now supports capo and sound effects for vibrato/pull-off/hammer/bends/mutes etc !!! Checkout help section
tabs and chords, guitar tabs, music transcription, music technology, deep learning, music information retrieval, transcribe into tabs & chords, chordify, music renditions, songsterr, reverbnation, tabulature, bollywood chords, ultimate guitar, yousician, guitar lessons, acoustic guitar, electric guitar, guitar tuner, 911 tabs