Guitar Tabs for Dil Ka Rishta - Udit Narayan Tabs

(/) Slide Up  (\) Slide Down  (h) Hammer On  (p) Pull Off  (b) Bend (r) Release (v) Vibrato

Tabs for Song : Dil Ka Rishta

Dil Ka Rishta Bada Hi Pyara Hai
E|--------------------------------------------------
B|-----11-9--11-11----9-----------------9--9--------
G|-----------------11----11-8--------8--------11-11-
D|--11-------------------------9--9-----------------
A|--------------------------------------------------
E|--------------------------------------------------

Kitna Pagal Yeh Dil Hamara Hai
E|--------------------------11-9-----------------
B|-----------11-11-12-12-12-------11-9--11-9-----
G|---8/11-11----------------------------------11-
D|-----------------------------------------------
A|-----------------------------------------------
E|-----------------------------------------------

Hum To Ek Doosre Pe Marte Hai.
Jaanta Yeh Jahaan Sara Hai
Dil Ka Rishta Bada Hi Pyara Hai (Same As Part 1)

Mere Palkon Ko Chum Ke Dilbar
E|--------9--11-11-11-14-11-9--11-9--9--------
B|--11-12-------------------------------12-11-
G|--------------------------------------------
D|--------------------------------------------
A|--------------------------------------------
E|--------------------------------------------

Mere Palkon Ko Chum Ke Dilbar
E|---9/14-14-13-11-11-9--11----9--11-11-9--9-----------
B|--------------------------12----------------11-9-----
G|--------------------------------------------------11-
D|-----------------------------------------------------
A|-----------------------------------------------------
E|-----------------------------------------------------

Repeat Part 1 Again.
tabs and chords, guitar tabs, music contests, music covers, songsterr, reverbnation, renditions, tabulature, bollywood chords, ultimate guitar, yousician, guitar lessons, torrins, fender, gibson, acoustic guitar, electric guitar, youtube covers, gootar, guitar tuner, A-Z tabs, 911 tabs