Guitar Tabs for Yeh mera dil pyar ka deewana

Tabs for Song : Yeh mera dil pyar ka deewana

Yeh mera dil pyar ka deewana
E|--3-----5--3--5--3--1-----5--5--6--5--3--3--3-----
B|--------------------------------------------------
G|--------------------------------------------------
D|--------------------------------------------------
A|--------------------------------------------------
E|--------------------------------------------------

Deewana, deewana pyar ka parwana
E|--3--3--3--5--3--5--1-----5--5--6--5--3--3--3-----
B|--------------------------------------------------
G|--------------------------------------------------
D|--------------------------------------------------
A|--------------------------------------------------
E|--------------------------------------------------

Aata hai mujhko pyar mein jal jaana
E|--3--5--6--8--10-11-10-8--6--8--6--5-----
B|-----------------------------------------
G|-----------------------------------------
D|-----------------------------------------
A|-----------------------------------------
E|-----------------------------------------

Mushqil hai pyare tera bachke jaana
E|--3--5--6--8--10-11-10-8--6--8--6--5-----
B|-----------------------------------------
G|-----------------------------------------
D|-----------------------------------------
A|-----------------------------------------
E|-----------------------------------------

Yeh mera dil yaar ka deewana
E|--3--5--3--5--3--1--5--5--6--5--3--3--3-----
B|--------------------------------------------
G|--------------------------------------------
D|--------------------------------------------
A|--------------------------------------------
E|--------------------------------------------

Yeh mera dil pyar ka deewana
E|--3--1--3--5--8--5--3--1-----5--5--6--5--3--3--3-----
B|-----------------------------------------------------
G|-----------------------------------------------------
D|-----------------------------------------------------
A|-----------------------------------------------------
E|-----------------------------------------------------


Dil woh chahe jise, chahe jise use paaye
E|--6--6--5--6-----8--5--6-----5--6--8--6--5--6--8--5--6--7--8-----
B|-----------------------------------------------------------------
G|-----------------------------------------------------------------
D|-----------------------------------------------------------------
A|-----------------------------------------------------------------
E|-----------------------------------------------------------------

Pyar woh yaar ke jo naam pe hi mit jaaye
E|--8--7--8-----7--8--10-7--8--7--8--10-8--7--8--10-7--8--8-----
B|--------------------------------------------------------------
G|--------------------------------------------------------------
D|--------------------------------------------------------------
A|--------------------------------------------------------------
E|--------------------------------------------------------------

tabs and chords, guitar tabs, music transcription, music technology, deep learning, music information retrieval, transcribe into tabs & chords, chordify, music renditions, songsterr, reverbnation, tabulature, bollywood chords, ultimate guitar, yousician, guitar lessons, acoustic guitar, electric guitar, guitar tuner, 911 tabs