Guitar Tabs for Dil De Diya Hain

Rukh Jindagee Ne Mod Liya Kaisa
E|-----------------------------------------------------
B|--------3-----3-----3------3h-4p3--------------------
G|--5--5-----5-----5-----5-----------5---3h-5p3--------
D|-----------------------------------------------6-----
A|-----------------------------------------------------
E|-----------------------------------------------------


Hamne Socha Nahee Tha Kabhee Aisa
E|-----------------------------------------------
B|--------3--3-----------------------------------
G|-----5--------5---3h-5p3-----------------------
D|--6-----------------------6--6--5--3--5--------
A|-----------------------------------------------
E|-----------------------------------------------


Aata Nahee Yakin, Kya Se Kya Ho Gaya
E|--------------------------------------------------------------------
B|--------3-----3-----------------------4---4/6--4--3---3h-4p3--------
G|---3/5-----5-----5---3h-5p3-----------------------------------5-----
D|-----------------------------6-----6--------------------------------
A|--------------------------------------------------------------------
E|--------------------------------------------------------------------


Kis Tarah Mai Tumase Bewafa Ho Gaya
E|-----------------------------------------------------------------------------------
B|--------3-----3-----------------------4---4/6--4--3---3h-4p3-----------------------
G|---3/5-----5-----5---3h-5p3-----------------------------------5--3---3h-5p3-----3--
D|-----------------------------6-----6-----------------------------------------6-----
A|-----------------------------------------------------------------------------------
E|-----------------------------------------------------------------------------------


Insaaf Kar Do
E|--------------------------------------
B|--------3--4-----3--4--6--4--3--------
G|--5-----------5-----------------5-----
D|--------------------------------------
A|--------------------------------------
E|--------------------------------------


Mujhe Maaf Kar Do
E|--------------------------------------
B|-----------3--------3--4--3-----------
G|--3--3--5-----3--5-----------5--3-----
D|--------------------------------------
A|--------------------------------------
E|--------------------------------------


Itna Hee Kar Do Karam
E|-----------------------------------------
B|-----------3-----------------------------
G|-----5--5-----5--3---3h-5p3--------------
D|--6--------------------------6--5--------
A|-----------------------------------------
E|-----------------------------------------


Ho… Rab Dee Kasam Yaara, Rab Dee Kasam
E|-----------------------3-----------------------------------------------------------
B|---4/6--4-----4--4--6-----6--4---3h-4p3--------------3--4--6--4--3---3h-4p3--------
G|-----------------------------------------5-----3--3--------------------------5-----
D|-----------------------------------------------------------------------------------
A|-----------------------------------------------------------------------------------
E|-----------------------------------------------------------------------------------


Dil De Diya Hai,
E|--------------------------------------
B|--------3--4-----3--4--6--4--3--------
G|--5-----------5-----------------5-----
D|--------------------------------------
A|--------------------------------------
E|--------------------------------------


Jaan Tumhe Denge
E|--------------------------------------
B|-----------3--------3--4--3-----------
G|--3--3--5-----3--5-----------5--3-----
D|--------------------------------------
A|--------------------------------------
E|--------------------------------------


dagaa nahi karenge sanam
E|--------------------------------------
B|-----------3--------------------------
G|-----5--5-----5--3---3h-5p3-----------
D|--6--------------------------6--5-----
A|--------------------------------------
E|--------------------------------------



tabs and chords, guitar tabs, music contests, music covers, songsterr, reverbnation, renditions, tabulature, bollywood chords, ultimate guitar, yousician, guitar lessons, torrins, fender, gibson, acoustic guitar, electric guitar, youtube covers, gootar, guitar tuner, A-Z tabs, 911 tabs