Guitar Tabs for Diary Of A Madman

(/) Slide Up  (\) Slide Down  (h) Hammer On  (p) Pull Off  (b) Bend (r) Release (v) Vibrato (x) Muted

Tabs for Song : 
BPM : 200

Song lyrics here
E|--------------0-----------------------0-----------------------5-----------------------5-----------
B|-----------4-----4-----------------4-----4-----------------4-----4-----------------3-----3--------
G|--------6-----------6-----------6-----------6-----------5-----------5-----------4-----------4-----
D|-----7-----------------7-----5-----------------5-----4-----------------4-----3-----------------3--
A|--0-----------------------0-----------------------0-----------------------0-----------------------
E|--------------------------------------------------------------------------------------------------

E|--------------0-----------------------0-----------------------0-----------------------0-----------
B|-----------2-----2-----------------1-----1--------------1--------1--------------3--------3--------
G|--------4-----------4-----------4-----------4--------4-----4--------4--------2-----2--------2-----
D|-----2-----------------2-----2-----------------2-----------------------2-----------------------0--
A|--0-----------------------0-----------------------------------------------------------------------
E|--------------------------------------------------3-----------------------1-----------------------

E|-----------------------------------0--------
B|--------------------------0-----0-----0--3--
G|-----------------1-----1-----1-----------4--
D|--------4-----4-----4-----------------------
A|-----2-----2--------------------------------
E|--0-----------------------------------------

E|-----------------------------------------------------------------------------------------------
B|-----------------------------------------------------------------------------------------------
G|--------5-----4-----------2-----4-----5-----4-----2--------5-----4-----2-----4-----5-----4-----
D|-----2-----2-----2-----2-----2-----2-----2-----2--------2-----2-----2-----2-----2-----2--------
A|--0-----------------0--------------------------------0-----------------------------------------
E|-----------------------------------------------------------------------------------------------

E|------------
B|-----------
G|-----------
D|-----------
A|--------0--
E|--0--------

Song lyrics here
E|--
B|--
G|--
D|--
A|--
E|--

Paste any tab in acousterr's tab maker and we'll play it !!!
Now supports capo and sound effects for vibrato/pull-off/hammer/bends/mutes etc !!! Checkout help section
tabs and chords, guitar tabs, music transcription, music technology, deep learning, music information retrieval, transcribe into tabs & chords, chordify, music renditions, songsterr, reverbnation, tabulature, bollywood chords, ultimate guitar, yousician, guitar lessons, acoustic guitar, electric guitar, guitar tuner, 911 tabs