Guitar Tabs for Dhadak

Marhami sa chaand hai tu
Diljala sa main andhera
E|-----6--5--6-----5--6---5h-6p5-----------5-----5-----5--6---5h-6p5--------------
B|--8-----------------------------6-----6-----8-----------------------8-----7-----
G|--------------------------------------------------------------------------------
D|--------------------------------------------------------------------------------
A|--------------------------------------------------------------------------------
E|--------------------------------------------------------------------------------


Ek dooje ke liye hain
Neend meri khwaab tera
E|-----6--5--6-----5--6---5h-6p5-----------5-----5-----5--6---5h-6p5-----------
B|--8-----------------------------6-----6-----8-----------------------8--------
G|-----------------------------------------------------------------------------
D|-----------------------------------------------------------------------------
A|-----------------------------------------------------------------------------
E|-----------------------------------------------------------------------------


Tu ghata hai phuhaar ki
Main ghadi intezaar ki
E|-----13-11-10----11-------10h11p10----------11-10-8-----10-----8h10p8--------
B|--------------------13-------------------------------------11----------------
G|--12-------------------------------10----10----------------------------8-----
D|-----------------------------------------------------------------------------
A|-----------------------------------------------------------------------------
E|-----------------------------------------------------------------------------


Apna milna likha issi baras hai na
E|--------8--6--6-----8--6-----6--5-----6---5h-6p5-----------------
B|--------------------------------------------------8---8/10-------
G|-----8-----------------------------------------------------------
D|-----------------------------------------------------------------
A|-----------------------------------------------------------------
E|-----------------------------------------------------------------


Jo meri manzilon ko jaati hai
E|-----5--6-----8--6-----8--6-----8--6---8/10-10----
B|--8-----------------------------------------------
G|--------------------------------------------------
D|--------------------------------------------------
A|--------------------------------------------------
E|--------------------------------------------------


Tere naam ki koi sadak hai na
E|--8--10-10/11----10-8-----6--5---------6h-8p6---5h-6p5-----------
B|-----------------------------------8--------------------8--7-----
G|-----------------------------------------------------------------
D|-----------------------------------------------------------------
A|-----------------------------------------------------------------
E|-----------------------------------------------------------------


Jo mere dil ko dil banati hai
E|-----5--6-----8--6-----8--6-----8--6---8/10-10----
B|--8-----------------------------------------------
G|--------------------------------------------------
D|--------------------------------------------------
A|--------------------------------------------------
E|--------------------------------------------------


Tere naam ki koi dhadak hai na
E|--8--10-10/11----10-8-----6--5------6h-8p6---5h-6p5--------
B|--------------------------------8--------------------8-----
G|-----------------------------------------------------------
D|-----------------------------------------------------------
A|-----------------------------------------------------------
E|-----------------------------------------------------------


tabs and chords, guitar tabs, music contests, music covers, songsterr, reverbnation, renditions, tabulature, bollywood chords, ultimate guitar, yousician, guitar lessons, torrins, fender, gibson, acoustic guitar, electric guitar, youtube covers, gootar, guitar tuner, A-Z tabs, 911 tabs