Ukulele Tabs for Demons By Imagine Dragons

(/) Slide Up  (\) Slide Down  (h) Hammer On  (p) Pull Off  (b) Bend (r) Release (v) Vibrato

Tabs for Song : 

When the days are cold And the cards all fold And the saints we see Are all made of gold 
A|--------1--------------1--------------3-----------------------
E|-----------3--1-----------3--1-----------3--1--------4--4--4--
C|--3--3-----------3--3-----------3--3-----------3--3-----------
G|--------------------------------------------------------------

When your dreams all fail And the ones we hail Are the worst of all And the blood's run stale
A|--------1--------------1--------------3-----------------------
E|-----------3--1-----------3--1-----------3--1--------4--4--4--
C|--3--3-----------3--3-----------3--3-----------3--3-----------
G|--------------------------------------------------------------

I wanna hide the truth I wanna shelter you But with the beast inside There's nowhere we can hide
A|--1--1--1--1-----1--1--1--1--6--5--3--------------------------------------
E|--------------3-----------------------3--3--3--3--3--4--4--4--4--4--3--3--
C|--------------------------------------------------------------------------
G|--------------------------------------------------------------------------

No matter what we breed We still are made of greed This is my kingdom come This is my kingdom come
A|--6--6--6--6--6--5--5--5--5--5--5--3--------------------------------------
E|--------------------------------------3--3--3--3--3--4--4--4--4--4--3--3--
C|--------------------------------------------------------------------------
G|--------------------------------------------------------------------------

When you feel my heat Look into my eyes It's where my demons hide It's where my demons hide
A|--------1--------------1--------------------------------------------
E|--3--3-----------3--3-----------3--3--3--3--3--4--4--4--4--4--3--3--
C|-----------3--2-----------2--0--------------------------------------
G|--------------------------------------------------------------------

Don't get too close It's dark inside It's where my demons hide It's where my demons hide
A|-----1-----------1-----------------------------------------1--
E|--3-----------3-----------3--3--3--3--3--4--4--4--4--4--3-----
C|--------3--2--------2--0--------------------------------------
G|--------------------------------------------------------------

At the curtain's call It's the last of all When the lights fade out All the sinners crawl
A|--------------1--------------3-----------------------------1--------
E|--3--1-----------1--1-----------3--1--------4--4--4-----------3--1--
C|--------3--3-----------3--3-----------3--3-----------3--3-----------
G|--------------------------------------------------------------------

So they dug your grave And the masquerade Will come calling out At the mess you made
A|--------1--------------1--------------3----------------------
E|-----------3--1-----------3--1-----------3--1--------4--4--4--
C|--3--3-----------3--3-----------3--3-----------3--3-----------
G|--------------------------------------------------------------

Don't wanna let you down But I am hell bound Though this is all for you Don't wanna hide the truth
A|--1--1--1--1-----1--1--1--1--6--3--------------------------------------
E|--------------3--------------------3--3--3--3--3--4--4--4--4--4--3--3--
C|-----------------------------------------------------------------------
G|-----------------------------------------------------------------------

No matter what we breed We still are made of greed This is my kingdom come This is my kingdom come
A|--6--6--6--6--6--5--5--5--5--5--5--3--------------------------------------
E|--------------------------------------3--3--3--3--3--4--4--4--4--4--3--3--
C|--------------------------------------------------------------------------
G|--------------------------------------------------------------------------

When you feel my heat Look into my eyes It's where my demons hide It's where my demons hide
A|--------1--------------1--------------------------------------------
E|--3--3-----------3--3-----------3--3--3--3--3--4--4--4--4--4--3--3--
C|-----------3--2-----------2--0--------------------------------------
G|--------------------------------------------------------------------


Don't get too close It's dark inside It's where my demons hide It's where my demons hide
A|-----1-----------1--------------------------------------------
E|--3-----------3-----------3--3--3--3--3--4--4--4--4--4--3--3--
C|--------3--2--------2--0--------------------------------------
G|--------------------------------------------------------------

They say it's what you make I say it's up to fate It's woven in my soul I need to let you go
A|--6--6--6--6--8--5--5--5--5--5--6--3--3--3--3--3--------3--3--3--3--5--6--
E|--------------------------------------------------3--4--------------------
C|--------------------------------------------------------------------------
G|--------------------------------------------------------------------------

Your eyes, they shine so bright I wanna save that light I can't escape this now Unless you show me how
A|--6--6--6--6--8--5--5--5--5--5--5--3--10-10-10-10-8--6--11-11-11-11-10-10-
E|--------------------------------------------------------------------------
C|--------------------------------------------------------------------------
G|--------------------------------------------------------------------------

When you feel my heat Look into my eyes It's where my demons hide It's where my demons hide
A|--------1--------------1--------------------------------------------
E|-----------------3--3-----------3--3--3--3--3--4--4--4--4--4--3--3--
C|--3--3-----3--2-----------2--0--------------------------------------
G|--------------------------------------------------------------------


Don't get too close It's dark inside It's where my demons hide It's where my demons hide
A|-----1-----------1--------------------------------------------
E|--3-----------3-----------3--3--3--3--3--4--4--4--4--4--3--3--
C|--------3--2--------2--0--------------------------------------
G|--------------------------------------------------------------

tabs and chords, guitar tabs, music transcription, music technology, deep learning, music information retrieval, transcribe into tabs & chords, chordify, music renditions, songsterr, reverbnation, tabulature, bollywood chords, ultimate guitar, yousician, guitar lessons, acoustic guitar, electric guitar, guitar tuner, 911 tabs