Bass Tabs for Deluge - Cascade Cover

(/) Slide Up  (\) Slide Down  (h) Hammer On  (p) Pull Off  (b) Bend (r) Release (v) Vibrato (x) Muted

Tabs for Song : 


G|--------------------------------------------------------------------------------------------------------------------------------------------------------------------------------------------------
D|--------------------------------------------------------------------------------------------------------------------------------------------------------------------------------7-----5-----------
A|--------------------------------------------------------------------------------------------------------------------------------5-----------------------------------------------------------7-----
E|--5-----------5--------5-----5--5-----5-----5--5--5-----------5--------5-----5--5-----5-----5--5--3-----------3--------3-----3--------3-----3--3--3-----------3--------3-----3--------------------


G|-----------------------------------------------------------------------------------------------------------------------------------------------------------------------------------------------------
D|-----------------------------------------------------------------------------------------------------------------------------------------------------------------------------------------------------
A|-----------------------------------------------------------------------------------------------------------------------------------------------------------------------------------------------------
E|--2-----------2--------2-----2--2-----2-----2--2--2-----------2--------2-----2--2-----2-----2--2--1-----------1--------1-----1--1-----1-----1--1--3-----------3--------3-----3--3-----3-----3--3-----

Paste any tab in acousterr's tab maker and we'll play it !!!
Now supports capo and sound effects for vibrato/pull-off/hammer/bends/mutes etc !!! Checkout help section
tabs and chords, guitar tabs, music transcription, music technology, deep learning, music information retrieval, transcribe into tabs & chords, chordify, music renditions, songsterr, reverbnation, tabulature, bollywood chords, ultimate guitar, yousician, guitar lessons, acoustic guitar, electric guitar, guitar tuner, 911 tabs