Guitar Tabs for Theodus Cover

(/) Slide Up  (\) Slide Down  (h) Hammer On  (p) Pull Off  (b) Bend (r) Release (v) Vibrato

Tabs for Song : 

Song lyrics here                                                     Not sure about 1 of these
C|--------0--------0--------------0---------0----------------------   0------------ -------0--------
A|--------------------0-----------------------0-------------------------- ----- --------------------
F|--5--------4-------- --0--2--0-----4----- -----0--------4--5--4-----------2----- --4-----------0--
C|-----0-------- ----------- --0--  ---------- -- -----0--------------0 -------0-- --------0--------
F|--------------------------------------------------------------------------------0-----------------
C|--5--------5--------------5--------5--------------4-----------4-----------4--------4--------------

Song lyrics here
C|-----------0--------0-----------0-------  -----------------------2--------- -2-----2-----2--------
A|-------------------- --3--------------------3-----1-------- --------1-----3-----3--1--------------
F|--------4-----4-----------2--------4-----4--------0--------0--------------------------------0-----
C|-----0----- --------0-- -----0--------0-------- --2-----2--------------2-----------------------0--
F|--------------------------------------------------0-------------------- --0-----0--0--------------
C|--3-----------3-----------3--------3--------------2-----2--2- ---2--2--2--------------------------

     
    Lazily Hit a few
C|-----------------0-------------------------------------------- --0-----------------------0--------
A|--1-------------- --------3--------1--------------------3-----------3-----------------------0-----
F|-- --------0--------0--------0-----------0--2--0--2--4-----4-----------4--5--4--2--4-----------0--
C|--1-----1------------ -1--------1--------------1--0--------0--------  -0--0-----0--0--------------
F|-- -----0--0--------------0--------0-----------0--0--------0-----------0--0-----0--0--------------
C|--------------------------------------------------------------------------------------------------

      Fill in the gaps here
C|-----------------------------------0-----------------------------------------------5--------------
A|-----------------------------------------------------------0--1--3--1-----0--------------0--------
F|--------2--2--2-----  -4 -5--------4--5--4--2-----0-----------------------------0-----------0-----
C|--------0--------------------------------------------------0--2--4--2-----0--------------------0--
F|-----2--------2--------------------------2--------0--------0--0-----0-----0-----------------------
C|--0-----------------------0-----------------------------------------------------------------------


                                             VERSE 2
C|-----------------0-----------------------0--------------------------0--------------------0--------
A|-----3--------------0-----------------------0--------------------------0--3-----0-----------------
F|--5--------4-----------0--2--4--5--4-----------0--------5-----4--------------4--------------4--0--
C|--0--------0-----------0--0-----0--0-----------------0--------------------------------------------
F|--0--------0--------------0--------0-----0--0--0--------------------------------------------------
C|--------------------------------------------------4-----------4-----------4-----------4-----------

                                                                 SLIDE UP FROM 3 ON SECOND STRING
C|--------------2-----------------------2-----------2--------------2-----------------------2--------
A|-----------3-----------------------3-----3--------1-----------------1-----5--3--------------------
F|--------4-----------------------4-----------4-----0--------0-----------0--------5--0--------0-----
C|-----0--------------0-----------------------------2-----2--------------------------------2-----2--
F|--------------------------------------------------------------------------------------------------
C|--3-----------------3-----3-----------------------------------------------------------------------


C||-----------------0-------------------------------------------- --0-----------------------0--------
A|--1-------------- --------3--------1--------------------3-----------3-----------------------0-----
F|-- --------0--------0--------0-----------0--2--0--2--4-----4-----------4--5--4--2--4-----------0--
C|--1-----1------------ -1--------1--------------1--0-----0--0--------  -0--0-----0--0--------------
F|-- -----0--0--------------0--------0-----------0--0--------0-----------0--0-----0--0--------------
C|--------------------------------------------------------------------------------------------------


   FEATHER IN SOME SHIT
C|-----------------------0-----------0-----------------------0-----0--------0--------0--------0-----
A|-----------------------0-----------------------------------0--1--3--1-----0--------1--------3-----
F|--------2--2--2-----  -4 -5--------4--5--4--2-----0-----------------------------------------
C|--------0--------------------------------------------------0--2--4--2-----0--------2--------4-----
F|-----2--------2--------2-----------------2--------0--------0--0-----0-----0--------0--------0-----
C|--0--------------------0--0-----------------------------------------------------------------------


                                                                         Double Check this Run
C|--------------------------------5--------5-----------------------4-----------------------4--------
A|--5--------5-----------7--8--------7--------5-----4-----------------4--------------5--------4-----
F|-----5--------------5--------5--------5--------------------4--------------------4-----------------
C|--------5--------5-----------------------------0-----------------------------4--------------------
F|--------------------------------------------------4-----------------------4-----------------4-----
C|--5--------5--------------0----------0------0--------------4-----------4--------------------------


C|--------------------------------------7-----5-----------------------------------------9-----------
A|--5--------5--------7-----8--------8-----8--------7--------7--------8-----10-------10-------------
F|-----------5--------5-----5--------5-----5-----------7-----------------------------7--------7-----
C|--5--------5--------5-----5--------5-----5--------------7-----------0-----0-----7-----------7-----
F|-----------------------------------5--------5-----------------------------------7-----------7-----
C|--5-----5--5--------5-----5-----5-- -----5--------7--------7--------------7-----------------------

C|--10-------------10-------12----------------
A|-----7-----8--------8-----12----------------
F|--------7--------------7--7-----------------
C|--------------------------7-----------------
F|--------------------------7-----------------
C|--0--------0-----0--------0-----------------
                                                              Reference the video, watch his fingers again
C|-----------------0--------------0--------0--------------------------0-----------0--------0--------
A|--13-------12-------------10-------12-------------------12-13-12-------0--10-------12-------------
F|--------------------0--------0--------------0-----------11-------------------11----11-------------
C|--13-------12-------------10-------12-------------------12----12-------------------------0--------
F|--0--------0-----------0--0--------0-----------0-----11-------11-------------  ----11-------------
C|--------------------------------------------------0-----------------------------------------------


C|-----------12-------------------------------12-------------10-------------10-------10----10-------
A|--------12----12----------10-------12----------------------------8-----------8--------------8-----
F|--------10----10----10-------------------10-------------------------0-----------0--0-----------0--
C|--------------------------------------------------------10-------------------------------10-------
F|-----10-------   ---10----10----10-10----------0--9--------------------9--------------------------
C|--0-----------0-----------------------------------------------------------------------------------


                           possibly omit the las 8                               
C|-----------10-------------12-------10-------------0--------0-----0--------0-----0--0-----0--------
A|-----------------8-----------------------8--10-8--12-13----12-------------13-12-10-12-------0-----
F|--------------------0-----------------------------0--------0--------0-----0--------0-----------0--
C|-----------10-------------10----10-10----10-10----12-------12-------------------------------------
F|--8---------------------8-8-----8---8----8--8-----0--------0--------------0-----0--0--------------
C|-----------------------------------------------------------------------0-------------------------
                                                  harmonic                       harmonic
C|--------------------------0-----------------------------------------0-----------12----------------
A|--------------------------10-------12-13-12-10----------------------------0--------12-------------
F|--------11-11-11----12----11---- --           ----12-------------0-----------0--------------------
C|--------0  0      ----  --0-----------------------12-------9--10-------9--------------------------
F|-----11-------------------11-------11-11-11-11----------------------------------------------------
C|--0--------0--0-- --0-----0-----------------------------------------------------------------------

Add more lines by placing cursor below and adding notes
tabs and chords, guitar tabs, music contests, music covers, songsterr, reverbnation, renditions, tabulature, bollywood chords, ultimate guitar, yousician, guitar lessons, torrins, fender, gibson, acoustic guitar, electric guitar, youtube covers, gootar, guitar tuner, A-Z tabs, 911 tabs