Guitar Tabs for Dearly Beloved

(/) Slide Up  (\) Slide Down  (h) Hammer On  (p) Pull Off  (b) Bend (r) Release (v) Vibrato (x) Muted

Tabs for Song : 
BPM : 200

Song lyrics here
E|--8-----------------10----8-----------------10----11----10----15----13----11----10----8-----15----
B|--------8-----6-----------------8-----6--------------11-6--8--11-------------11-6--8--11----------
G|--------------8-----------------------7-----------8-----------------------8-----------------------
D|--------8--6--------------------10-8--------------------------------------------------------------
A|-----6-----------------------8--------------------------------------------------------------------
E|--4-----------------------6-----------------------------------------------------------------------

E|--8--8--------------10-10-8--8--------------10-10-11-11-10-10-15-15-13-13-11-11-10-10-8--8--15-15-
B|--------8--8--6--6--------------8--8--6--6-----------11-6--8--11-------------11-6--8--11----------
G|--------------8-----------------------7-----------8-----------------------8-----------------------
D|--------8--6--------------------10-8--------------------------------------------------------------
A|-----6-----------------------8--------------------------------------------------------------------
E|--4-----------------------6-----------------------------------------------------------------------

Song lyrics here
E|--
B|--
G|--
D|--
A|--
E|--

Paste any tab in acousterr's tab maker and we'll play it !!!
Now supports capo and sound effects for vibrato/pull-off/hammer/bends/mutes etc !!! Checkout help section
tabs and chords, guitar tabs, music transcription, music technology, deep learning, music information retrieval, transcribe into tabs & chords, chordify, music renditions, songsterr, reverbnation, tabulature, bollywood chords, ultimate guitar, yousician, guitar lessons, acoustic guitar, electric guitar, guitar tuner, 911 tabs