Guitar Tabs for Dearly Beloved

(/) Slide Up  (\) Slide Down  (h) Hammer On  (p) Pull Off  (b) Bend (r) Release (v) Vibrato (x) Muted

Tabs for Song : 



Song lyrics here
E|--------------------------------------------------------------
B|--------------------------------------------------------------
G|--------------------------------------------------------------
D|--10-10-------------12-12-10-10-------------12-12-13-13-12-12-
A|--------10-10-8--8--------------10-10-8--8--------------------
E|--------------------------------------------------------------

E|--------------------------------------------
B|--------------------------------------------
G|--12-12-10-12-10----------------------------
D|-----------------13-13-12-12-10-10-9--9--10-
A|--------------------------------------------
E|--------------------------------------------

Paste any tab in acousterr's tab maker and we'll play it !!!
Now supports capo and sound effects for vibrato/pull-off/hammer/bends/mutes etc !!! Checkout help section
tabs and chords, guitar tabs, music transcription, music technology, deep learning, music information retrieval, transcribe into tabs & chords, chordify, music renditions, songsterr, reverbnation, tabulature, bollywood chords, ultimate guitar, yousician, guitar lessons, acoustic guitar, electric guitar, guitar tuner, 911 tabs