Guitar Tabs for Dear Marie (lead)

(/) Slide Up  (\) Slide Down  (h) Hammer On  (p) Pull Off  (b) Bend (r) Release (v) Vibrato (x) Muted

 - ")" Means repetition

Tabs for Song : 
BPM : 180

"Dear Marie..." 
E|--------5--
B|-----------
G|---4/6-----
D|-----------
A|-----------
E|-----------

"From time to time..." 
E|--------------------------------
B|--12/14-------19-17-12-10-12/14-
G|--------------------------------
D|--------------------------------
A|--------------------------------
E|--------------------------------

"From time to time..."
E|--------------------17/19-17-------------------------------
B|--------10-------------------17/19-17-14-------17----------
G|---9h11-------------------------------------18----18\16-14-
D|-----------------------------------------------------------
A|-----------------------------------------------------------
E|-----------------------------------------------------------

"Some county judge in Ohio is all I ever find"
E|--------------
B|-----------10-
G|------9/11----
D|--------------
A|--------------
E|--------------

Solo (Guitar 1):
E|-----------------------------------------
B|-----------------------------------------
G|---4/6-----11\9---9\6---6\4---4\2---4/6--
D|-----------------------------------------
A|-----------------------------------------
E|-----------------------------------------

E|-----------------------------------------
B|-----------12\10-10\7---7\5---5\2---2/5--
G|---9/11----------------------------------
D|-----------------------------------------
A|-----------------------------------------
E|-----------------------------------------

E|-----------------------------
B|---7\5---5\2---2p0-----------
G|---------------------4\2--2--
D|-----------------------------
A|-----------------------------
E|-----------------------------

Solo (Guitar 2):
E|-----------------------------------------
B|---7/10----12\10-10\7---7\5---5\2---2/5--
G|-----------------------------------------
D|-----------------------------------------
A|-----------------------------------------
E|--------------------------------------

E|-----------------------------------------
B|--12/15----19\17-17\14-14\12-12\10-12/14-
G|-----------------------------------------
D|-----------------------------------------
A|-----------------------------------------
E|-----------------------------------------

E|-----------------------------
B|--15\14-14\12-12\10-10\7--5--
G|-----------------------------
D|-----------------------------
A|-----------------------------
E|-----------------------------

"Dear Marie..."                   "...believe in me?"
E|-----------------------------------------------------
B|--12/14----15-14-12-10-12/14-------------------12/14-
G|-----------------------------------------------------
D|-----------------------------------------------------
A|-----------------------------------------------------
E|-----------------------------------------------------

"Oh dear Marie..."                       "...believe in me?"
E|--------------------------------------------------------------12-14----------------12-14-------------------
B|--17/19-19-17-------------------------------------------12b14-------12/14----12b14-------12/14-10-12b14r12-
G|--------------18-19\18-16-18p16-14-------------------------------------------------------------------------
D|-----------------------------------------------------------------------------------------------------------
A|-----------------------------------------------------------------------------------------------------------
E|-----------------------------------------------------------------------------------------------------------

"Well I got that dream but you got yourself a family"
E|--------14-12----12----------------------
B|--15/17-------15----12/14-12b14r12-10-10-
G|-----------------------------------------
D|-----------------------------------------
A|-----------------------------------------
E|-----------------------------------------

"Yeah I got that dream but I guess you got away from me"
E|--17-14----------------------------------------------------
B|--------17-14-12/14-12b14r12-10-------------10-12p10-12/14-
G|-----------------------------------------11----------------
D|-----------------------------------------------------------
A|-----------------------------------------------------------
E|-----------------------------------------------------------

Outro(2:45):
E|-----------------12/14\12-
B|--------------------------
G|--------------------------
D|---9h11b12r11-------------
A|--------------------------
E|--------------------------

(2:52):
E|--12----------
B|--------------
G|--------------
D|-----11b12r11-
A|--------------
E|--------------

(2:59):
E|-----------------------------------------------------------------
B|--10/12-14\10----------------10----------12-14\10----------------
G|---------------9/11-----9/11-----9/11-------------9--------------
D|--------------------------------------------------------11b12r11)
A|-----------------------------------------------------------------
E|-----------------------------------------------------------------

(3:10):
E|--------------------------------------------
B|--10-9--10\7--7--7-----------------14b15r14)
G|--------------------9-----------------------
D|------------------------9/11----------------
A|--------------------------------------------
E|--------------------------------------------

(3:20):
E|--------------------
B|--12/14-12-10-------
G|--------------11-9v-
D|--------------------
A|--------------------
E|--------------------

(3:27):
E|--------------
B|--14\12-------
G|--------11-9v-
D|--------------
A|--------------
E|--------------

(3:30):
E|--------------------------------------------------
B|--------10-12\14----------10-19-17-15-12/14\12-10-
G|---9/11--------------9/11-------------------------
D|--------------------------------------------------
A|--------------------------------------------------
E|--------------------------------------------------





tabs and chords, guitar tabs, music transcription, music technology, deep learning, music information retrieval, transcribe into tabs & chords, chordify, music renditions, songsterr, reverbnation, tabulature, bollywood chords, ultimate guitar, yousician, guitar lessons, acoustic guitar, electric guitar, guitar tuner, 911 tabs