Bass Tabs for Dangerous Dreams

(/) Slide Up  (\) Slide Down  (h) Hammer On  (p) Pull Off  (b) Bend (r) Release (v) Vibrato (x) Muted

Tabs for Song : 
BPM : 200


G|-----------------------------------------------------------------------------------
D|--------------------------------------4--6-----------------------------------------
A|--------------4--6--6--4-----------------------------4--6--6--4--------------------
E|--4--4--6--7--------------7--4--4--4--------4--4--7--------------7--4--4--4--2--3--



G|--------------------------------------------------------------------------------
D|--------------------------------------------------------------------------------
A|-----------4--6--6--4--------------2--4-----------4--6--6--4--------------4--6--
E|--4--4--7--------------7--4--4--4--------4--4--7--------------7--4--4--4--------

G|-----------------------------------------------------------------------------
D|-----------------------------------------------------------------------------
A|-----------4--6--6--4--------------2--4-----------4--6--4--------------------
E|--4--4--7--------------7--4--4--4--------4--4--7-----------7--2--2-----3--3--

G|--------------------------------------------------------------------------------
D|--------------------------------------------------------------------------------
A|-----------4--6--6--4--------------2--4-----------4--6--6--4--------------4--6--
E|--4--4--7--------------7--4--4--4--------4--4--7--------------7--4--4--4--------

G|--------------------------------------
D|--------------------------------------
A|--7--7--7--7--7--7--7--7-----10----9--
E|--------------------------------------


G|-----------------------------------------------------------
D|--4--4--3--1--3--1--4--4--3--1--3--1--4--4--3--------------
A|-----------------------------------------------4--2--3-----
E|--------------------------------------------------------4--

G|-----------------------------------------------------5-----1-----------
D|--4--4--3--1--3--1--4--4--3--1--3--1--4--4--3--1--3-----------3--1-----
A|--------------------------------------------------------------------2--
E|-----------------------------------------------------------------------



G|-----------------------------------------------------------------------
D|-----------------------------------------------------------------------
A|--------------------------------------4--4-----4--4--------------------
E|--4--4-----4--4-----2--2-----2--2-----------------------4--4-----4--4--


G|-----------------------------------------------------------------------
D|-----------------------------------------------------------------------
A|-----------------------------------------------------------------------
E|--4--4--4--4--4--4--4--4--4--4--4--4--4--4--4--4--4--4--4--4--4--4--4--

tabs and chords, guitar tabs, music transcription, music technology, deep learning, music information retrieval, transcribe into tabs & chords, chordify, music renditions, songsterr, reverbnation, tabulature, bollywood chords, ultimate guitar, yousician, guitar lessons, acoustic guitar, electric guitar, guitar tuner, 911 tabs