Guitar Tabs for Dancing With Your Ghost

(/) Slide Up  (\) Slide Down  (h) Hammer On  (p) Pull Off  (b) Bend (r) Release (v) Vibrato (x) Muted

Tabs for Song : 
BPM : 220
capo at 4th fret
Song lyrics here 
E|-----------------------------------------------------------------------------------------------------
B|--0-----------(5)---------0-----------(5)---------0-----------(5)---------0-----------(5)------------
G|--0-----------------------0-----------------------2-----------------------0--------------------------
D|--2-----------------------0-----------------------2-----------------------2--------------------------
A|--2-----------------------2-----------------------0-----------------------2--------------------------
E|-----------------------------------------------------------------------------------------------------

E|--------------------------------------------------------------------------------------------------
B|-----3-----3-----------------------------------------3-----3--------------------------0-----------
G|--4-----4-----4-----------4-----------4-----------4-----4-----4-----0-----------------0-----------
D|--------------------------0-----------0-----------------------------------------------------------
A|--------------------------------------------------2-----------2-----------------------------------
E|--0-----------0-----------3-----------3-----------0-----------0-----------3-----------3-----------

E|--------------------------------------------------------------------------------------
B|-----0-----0--------------------------0--0--------------------0-----------0-----------
G|--2-----2-----2--0-----------------------------2--0-----------0-----------0-----------
D|--------------------2-----------0--------------------2--------2-----------2-----------
A|--0--------------------------------------------3--------2-----2-----------2-----------
E|-----------------------0--------------------------------------------------------------

E|--------------------------------------------------0--------------------------------m--------------
B|-----3-----3-----------------------------------------3--0-----------------------------------------
G|--4-----4-----4-----------4-----------4------------------------2/4--------0-----------------------
D|--------------------------0-----------0-----------------------------------------------------------
A|---------------------------------------------------------------0/---------2-----------2-----------
E|--0-----------0-----------3-----------3-----------0-----------------------3-----------3-----------

E|-----------------------------------------------------------------------------------------
B|-----0-----0--------------------------0-----0--------------------------------------------
G|--2-----2-----2--0--------------------0-----------2--0--0--------------------------------
D|--------------------2-----------0-----------------------2--------------------------------
A|--0-----------0-----------------------------------------------------2-----------2--------
E|--------------------------0-----------------------------3-----3-----------3--------------

E|--------------------------------------------------------------------------------------------------
B|-----0--0-----0--------------0--0-----0-----------------------0-----------0-----------------------
G|--2-----------------------2-----------------0-----0-----------0-----------0-----------------------
D|--------------------------------------------------------------------------------------------------
A|--0-----------0-----------3-----------3-----------2-----2-----------2-----------------2-----------
E|--------------------------------------------------------------------------------------------------

E|-----------------------------------------------------------------------------------
B|-----0--0-----0--------------0--0-----0-----------------------0-----------0--------
G|--2-----------------------2-----------------0-----0-----------0-----------0--------
D|-----------------------------------------------------------------------------------
A|--0-----------0-----------3-----------3-----------2-----2-----------2--------------
E|-----------------------------------------------------------------------------------

E|--------------------0-----------0-----------0-----2-----0--------------------------------
B|--------0-----3-----------------------------------------------3-----0-----------0--------
G|--0-----------------------------------------------------------------0-----------0--------
D|--------------------------2-----2-----2-----2-----0-----0--------------------------------
A|--------------------3-----------------------------------------------2-----2-----2-----2--
E|-----------------------------------------------------------------------------------------

E|--------------------------------------------------------------------------------------------------
B|-----0-----3-----3-----0--------------------------------------------------------------------------
G|-----0-----------------------2-----2-----------2-----0-----0--------------------------------------
D|-----------------0-----------0-----------------------------------------2--------------------------
A|-----2-----------------------0-----------0-----------3-----------------2--------------------------
E|-----------------------------------------------------------------3-----3--------------3-----------

E|--------------------0-----0-----0-----------0-----2-----0--------------------------------
B|--------0-----3-----------------------------------------------3-----0-----------0--------
G|--0-----------------------------------------------------------------0-----------0--------
D|--------------------------------------2-----------0--------------------------------------
A|--------------------3-----------3-----------3-----------------------2-----2-----2-----2--
E|-----------------------------------------------------------------------------------------

E|--------------------------------------------------------------x--------------------------
B|--0-----3-----3-----0-----0-----------------------------------x--------------------------
G|--0-----------------------0-----------0-----------0-----0-----x-----0--------------------
D|--------------0-----------------------------------------------x--------------------------
A|--2-----------------------3-----------0-----------2-----2-----x--------------------------
E|--------------------------------------------------------------x-----3--------------------

E|--------------------------------------------------------------------------------------------------c-
B|--0--------3--------3--------0--------0-----------------------------------------------------------
G|--0-----------------------------------0--------------0--------------0--------0--------------0-----
D|--------------------0-----------------------------------------------------------------------------
A|--2-----------------------------------3--------------0--------------2--------2--------------2-----
E|--------------------------------------------------------------------------------------------3-----

Song lyrics here 


Use manual mode to free up cursor. Paste any tab in acousterr tab maker and we'll play it !!!
tabs and chords, guitar tabs, music transcription, music technology, deep learning, music information retrieval, transcribe into tabs & chords, chordify, music renditions, songsterr, reverbnation, tabulature, bollywood chords, ultimate guitar, yousician, guitar lessons, acoustic guitar, electric guitar, guitar tuner, 911 tabs