Guitar Tabs for Dancing With A Stranger

(/) Slide Up  (\) Slide Down  (h) Hammer On  (p) Pull Off  (b) Bend (r) Release (v) Vibrato (x) Muted

Tabs for Song : Dancing With A Stranger 
BPM : 100

I don't wanna be alone tonight it's pretty clear that im not over you I'm still thinking about the things you do 
E|--------------------------------------------------------------------------------------------
B|-----3--1--0--------0-----0--------3--1--0-----------------------3--1--0-----------3--0-----
G|--0-----------2--0-----0--------0-----------2--0--2--2--0-----0-----------2--0--0-----------
D|--------------------------------------------------------------------------------------------
A|--------------------------------------------------------------------------------------------
E|--------------------3-----3-----------------------0-----0-----------------------3-----3-----
 So I dont wanna be (alone tonight ^3) can you light my fire?
E|-----------------------------------------------------------------------
B|-----3--1--------0-----0-----0-----0-----0-----------------0--3--0-----
G|--0--------2--0-----0-----------0-----------0--2--0-----2--------------
D|-----------------------------------------------------------------------
A|-----------------------------------------------------------------------
E|-----------------3-----3-----3-----3-----3-----0-----------------3-----
I need somebody who can take control, I know exactly what I need to do 
E|--0--------------------------------0--------------------------------
B|-----3--1--0-----------0--3--0--------3--1--0-----------0--3--0-----
G|--------------2--0--2--------------------------2--0--2--------------
D|--------------------------------------------------------------------
A|--------------------------------------------------------------------
E|-----------------------3-----3--------------------------3-----3-----
Cause I don't wanna be (alone tonight ^3)
E|--------------------------------------------------------
B|-----3--1--0--------0-----0-----0-----0-----0-----------
G|--0-----------2--0-----0-----------0-----------0--2-----
D|--------------------------------------------------------
A|--------------------------------------------------------
E|--------------------3-----3-----3-----3-----3-----0-----
Look what you made me do, I'm with somebody new, ooh baby baby I'm (dancing with a stranger)^2

E|-----0-----------------------0-----------------0-----------------------------------------------------------
B|--------3--1--0-----------------3--1--0-----------3--3--1--1--0--3-----1--0--------------3--1--0--------0--
G|-----------------2--0--------------------2--0--------------------------------2--2--0--------------2--2-----
D|-----------------------------------------------------------------------------------------------------------
A|-----------------------------------------------------------------------------------------------------------
E|--3-----------------0-----3-----------------0--3-----------------3--------------0--0--------------0--0--3--


tabs and chords, guitar tabs, music transcription, music technology, deep learning, music information retrieval, transcribe into tabs & chords, chordify, music renditions, songsterr, reverbnation, tabulature, bollywood chords, ultimate guitar, yousician, guitar lessons, acoustic guitar, electric guitar, guitar tuner, 911 tabs