Guitar Tabs for Dancing On My Own - Calum Scott Tabs

(/) Slide Up  (\) Slide Down  (h) Hammer On  (p) Pull Off  (b) Bend (r) Release (v) Vibrato

Tabs for Song : Dancing on my own Calum Scott

Song lyrics here
E|----------------------------------------------------------------------------------------------------
B|--------------------------------------------------------------------------1--------------------0----
G|-----0--0-----0--0-----0--0-----0--0-----2--0-----0--0-----0--0-----0--0--2--------------------0----
D|-----------------------------------------------------------------------------------------------0----
A|--3--------3--------------------------------------------------------------0-------------------------
E|--------------------3--------3--------1--------1--------1--------1-----------------------------3----

Song lyrics here
E|--------------------------------------------------------------------------------------------------------------------
B|--1--------------0--------------1--------------1-----0-----------1--------------------------------------------------
G|--2--------------0--------------2--------------2-----0-----------0--------------------------------------------------
D|-----------------0-----------------------------------0-----------2--------------------------------------------------
A|--0-----------------------------3--------------3--------------3-----------------------------------------------------
E|-----------------3-----------------------------------3--------------------------------------------------------------

Add more lines by placing cursor below and adding notes
tabs and chords, guitar tabs, music contests, music covers, songsterr, reverbnation, renditions, tabulature, bollywood chords, ultimate guitar, yousician, guitar lessons, torrins, fender, gibson, acoustic guitar, electric guitar, youtube covers, gootar, guitar tuner, A-Z tabs, 911 tabs