Guitar Tabs for Travis Scott - Stargazing

(/) Slide Up  (\) Slide Down  (h) Hammer On  (p) Pull Off  (b) Bend (r) Release (v) Vibrato (x) Muted

Tabs for Song : 

Song lyrics here
E|--------------------------------------------------
B|--------11b11b11b11b-------------8b-8b-8b-8b------
G|--------------------8-----------------------7-----
D|---8b-8b------------------------------------------
A|--------------------------10b10b------------------
E|--------------------------------------------------

Song lyrics here




E|-----------------------------------------------
B|-----------------------------------------------
G|---------------------------------2b2-----------
D|--5--5--5--5--5--5--5--5---5/7---------3b3-----
A|--------------------------------------------5v-
E|-----------------------------------------------



Paste any tab in acousterr's tab maker and we'll play it !!!
Now supports capo and sound effects for vibrato/pull-off/hammer/bends/mutes etc !!! Checkout help section
tabs and chords, guitar tabs, music transcription, music technology, deep learning, music information retrieval, transcribe into tabs & chords, chordify, music renditions, songsterr, reverbnation, tabulature, bollywood chords, ultimate guitar, yousician, guitar lessons, acoustic guitar, electric guitar, guitar tuner, 911 tabs